  0
SECTION
  2
HEADER
  9
$ACADVER
  1
AC1015
  9
$ACADMAINTVER
 70
     6
  9
$DWGCODEPAGE
  3
ANSI_1254
  9
$INSBASE
 10
0.0
 20
0.0
 30
0.0
  9
$EXTMIN
 10
0.0
 20
0.0
 30
0.0
  9
$EXTMAX
 10
279.4
 20
215.9
 30
0.0
  9
$LIMMIN
 10
0.0
 20
0.0
  9
$LIMMAX
 10
279.4
 20
215.9
  9
$ORTHOMODE
 70
     0
  9
$REGENMODE
 70
     1
  9
$FILLMODE
 70
     1
  9
$QTEXTMODE
 70
     0
  9
$MIRRTEXT
 70
     1
  9
$LTSCALE
 40
1.0
  9
$ATTMODE
 70
     1
  9
$TEXTSIZE
 40
3.5
  9
$TRACEWID
 40
1.0
  9
$TEXTSTYLE
  7
Standard
  9
$CLAYER
  8
0
  9
$CELTYPE
  6
ByLayer
  9
$CECOLOR
 62
   256
  9
$CELTSCALE
 40
1.0
  9
$DISPSILH
 70
     0
  9
$DIMSCALE
 40
1.0
  9
$DIMASZ
 40
3.5
  9
$DIMEXO
 40
1.0
  9
$DIMDLI
 40
3.75
  9
$DIMRND
 40
0.0
  9
$DIMDLE
 40
0.0
  9
$DIMEXE
 40
1.0
  9
$DIMTP
 40
0.0
  9
$DIMTM
 40
0.0
  9
$DIMTXT
 40
3.5
  9
$DIMCEN
 40
2.5
  9
$DIMTSZ
 40
0.0
  9
$DIMTOL
 70
     0
  9
$DIMLIM
 70
     0
  9
$DIMTIH
 70
     1
  9
$DIMTOH
 70
     1
  9
$DIMSE1
 70
     0
  9
$DIMSE2
 70
     0
  9
$DIMTAD
 70
     1
  9
$DIMZIN
 70
     0
  9
$DIMBLK
  1

  9
$DIMASO
 70
     1
  9
$DIMSHO
 70
     1
  9
$DIMPOST
  1

  9
$DIMAPOST
  1

  9
$DIMALT
 70
     0
  9
$DIMALTD
 70
     3
  9
$DIMALTF
 40
0.0393700787
  9
$DIMLFAC
 40
1.0
  9
$DIMTOFL
 70
     1
  9
$DIMTVP
 40
0.0
  9
$DIMTIX
 70
     0
  9
$DIMSOXD
 70
     0
  9
$DIMSAH
 70
     0
  9
$DIMBLK1
  1

  9
$DIMBLK2
  1

  9
$DIMSTYLE
  2
ISO-25
  9
$DIMCLRD
 70
     0
  9
$DIMCLRE
 70
     0
  9
$DIMCLRT
 70
     0
  9
$DIMTFAC
 40
1.0
  9
$DIMGAP
 40
1.524
  9
$DIMJUST
 70
     0
  9
$DIMSD1
 70
     0
  9
$DIMSD2
 70
     0
  9
$DIMTOLJ
 70
     0
  9
$DIMTZIN
 70
     0
  9
$DIMALTZ
 70
     0
  9
$DIMALTTZ
 70
     0
  9
$DIMUPT
 70
     0
  9
$DIMDEC
 70
     2
  9
$DIMTDEC
 70
     2
  9
$DIMALTU
 70
     2
  9
$DIMALTTD
 70
     3
  9
$DIMTXSTY
  7
Standard
  9
$DIMAUNIT
 70
     0
  9
$DIMADEC
 70
     2
  9
$DIMALTRND
 40
0.0
  9
$DIMAZIN
 70
     0
  9
$DIMDSEP
 70
    44
  9
$DIMATFIT
 70
     3
  9
$DIMFRAC
 70
     0
  9
$DIMLDRBLK
  1

  9
$DIMLUNIT
 70
     2
  9
$DIMLWD
 70
    -2
  9
$DIMLWE
 70
    -2
  9
$DIMTMOVE
 70
     0
  9
$LUNITS
 70
     2
  9
$LUPREC
 70
     2
  9
$SKETCHINC
 40
1.0
  9
$FILLETRAD
 40
10.0
  9
$AUNITS
 70
     0
  9
$AUPREC
 70
     2
  9
$MENU
  1
.
  9
$ELEVATION
 40
0.0
  9
$PELEVATION
 40
0.0
  9
$THICKNESS
 40
0.0
  9
$LIMCHECK
 70
     0
  9
$CHAMFERA
 40
0.0
  9
$CHAMFERB
 40
0.0
  9
$CHAMFERC
 40
0.0
  9
$CHAMFERD
 40
0.0
  9
$SKPOLY
 70
     0
  9
$TDCREATE
 40
2458985.711402685
  9
$TDUCREATE
 40
2458985.586402685
  9
$TDUPDATE
 40
2458985.711403032
  9
$TDUUPDATE
 40
2458985.586403032
  9
$TDINDWG
 40
0.0000000116
  9
$TDUSRTIMER
 40
0.0000000116
  9
$USRTIMER
 70
     1
  9
$ANGBASE
 50
0.0
  9
$ANGDIR
 70
     0
  9
$PDMODE
 70
     0
  9
$PDSIZE
 40
-1.0
  9
$PLINEWID
 40
0.0
  9
$SPLFRAME
 70
     0
  9
$SPLINETYPE
 70
     6
  9
$SPLINESEGS
 70
     8
  9
$HANDSEED
  5
10C
  9
$SURFTAB1
 70
     6
  9
$SURFTAB2
 70
     6
  9
$SURFTYPE
 70
     6
  9
$SURFU
 70
     6
  9
$SURFV
 70
     6
  9
$UCSBASE
  2

  9
$UCSNAME
  2

  9
$UCSORG
 10
0.0
 20
0.0
 30
0.0
  9
$UCSXDIR
 10
1.0
 20
0.0
 30
0.0
  9
$UCSYDIR
 10
0.0
 20
1.0
 30
0.0
  9
$UCSORTHOREF
  2

  9
$UCSORTHOVIEW
 70
     0
  9
$UCSORGTOP
 10
0.0
 20
0.0
 30
0.0
  9
$UCSORGBOTTOM
 10
0.0
 20
0.0
 30
0.0
  9
$UCSORGLEFT
 10
0.0
 20
0.0
 30
0.0
  9
$UCSORGRIGHT
 10
0.0
 20
0.0
 30
0.0
  9
$UCSORGFRONT
 10
0.0
 20
0.0
 30
0.0
  9
$UCSORGBACK
 10
0.0
 20
0.0
 30
0.0
  9
$PUCSBASE
  2

  9
$PUCSNAME
  2

  9
$PUCSORG
 10
0.0
 20
0.0
 30
0.0
  9
$PUCSXDIR
 10
1.0
 20
0.0
 30
0.0
  9
$PUCSYDIR
 10
0.0
 20
1.0
 30
0.0
  9
$PUCSORTHOREF
  2

  9
$PUCSORTHOVIEW
 70
     0
  9
$PUCSORGTOP
 10
0.0
 20
0.0
 30
0.0
  9
$PUCSORGBOTTOM
 10
0.0
 20
0.0
 30
0.0
  9
$PUCSORGLEFT
 10
0.0
 20
0.0
 30
0.0
  9
$PUCSORGRIGHT
 10
0.0
 20
0.0
 30
0.0
  9
$PUCSORGFRONT
 10
0.0
 20
0.0
 30
0.0
  9
$PUCSORGBACK
 10
0.0
 20
0.0
 30
0.0
  9
$USERI1
 70
     0
  9
$USERI2
 70
     0
  9
$USERI3
 70
     0
  9
$USERI4
 70
     0
  9
$USERI5
 70
     0
  9
$USERR1
 40
0.0
  9
$USERR2
 40
0.0
  9
$USERR3
 40
0.0
  9
$USERR4
 40
0.0
  9
$USERR5
 40
0.0
  9
$WORLDVIEW
 70
     1
  9
$SHADEDGE
 70
     3
  9
$SHADEDIF
 70
    70
  9
$TILEMODE
 70
     1
  9
$MAXACTVP
 70
    64
  9
$PINSBASE
 10
0.0
 20
0.0
 30
0.0
  9
$PLIMCHECK
 70
     0
  9
$PEXTMIN
 10
1.0000000000E+20
 20
1.0000000000E+20
 30
1.0000000000E+20
  9
$PEXTMAX
 10
-1.0000000000E+20
 20
-1.0000000000E+20
 30
-1.0000000000E+20
  9
$PLIMMIN
 10
0.0
 20
0.0
  9
$PLIMMAX
 10
420.0
 20
297.0
  9
$UNITMODE
 70
     0
  9
$VISRETAIN
 70
     1
  9
$PLINEGEN
 70
     0
  9
$PSLTSCALE
 70
     1
  9
$TREEDEPTH
 70
  3020
  9
$CMLSTYLE
  2
Standard
  9
$CMLJUST
 70
     0
  9
$CMLSCALE
 40
20.0
  9
$PROXYGRAPHICS
 70
     1
  9
$MEASUREMENT
 70
     1
  9
$CELWEIGHT
370
    -1
  9
$ENDCAPS
280
     0
  9
$JOINSTYLE
280
     0
  9
$LWDISPLAY
290
     1
  9
$INSUNITS
 70
     4
  9
$HYPERLINKBASE
  1

  9
$STYLESHEET
  1

  9
$XEDIT
290
     1
  9
$CEPSNTYPE
380
     0
  9
$PSTYLEMODE
290
     1
  9
$FINGERPRINTGUID
  2
{163ddab0-d747-4341-9a93-1032ba676696}
  9
$VERSIONGUID
  2
{FAEB1C32-E019-11D5-929B-00C0DF256EC4}
  9
$EXTNAMES
290
     1
  9
$PSVPSCALE
 40
0.0
  9
$OLESTARTUP
290
     0
  0
ENDSEC
  0
SECTION
  2
CLASSES
  0
CLASS
  1
ACDBDICTIONARYWDFLT
  2
AcDbDictionaryWithDefault
  3
ObjectDBX Classes
 90
        0
280
     0
281
     0
  0
CLASS
  1
VISUALSTYLE
  2
AcDbVisualStyle
  3
ObjectDBX Classes
 90
     4095
280
     0
281
     0
  0
CLASS
  1
MATERIAL
  2
AcDbMaterial
  3
ObjectDBX Classes
 90
     1153
280
     0
281
     0
  0
CLASS
  1
SCALE
  2
AcDbScale
  3
ObjectDBX Classes
 90
     1153
280
     0
281
     0
  0
CLASS
  1
TABLESTYLE
  2
AcDbTableStyle
  3
ObjectDBX Classes
 90
     4095
280
     0
281
     0
  0
CLASS
  1
MLEADERSTYLE
  2
AcDbMLeaderStyle
  3
ACDB_MLEADERSTYLE_CLASS
 90
     4095
280
     0
281
     0
  0
CLASS
  1
SUN
  2
AcDbSun
  3
SCENEOE
 90
     1153
280
     0
281
     0
  0
CLASS
  1
ACDBPLACEHOLDER
  2
AcDbPlaceHolder
  3
ObjectDBX Classes
 90
        0
280
     0
281
     0
  0
CLASS
  1
LAYOUT
  2
AcDbLayout
  3
ObjectDBX Classes
 90
        0
280
     0
281
     0
  0
ENDSEC
  0
SECTION
  2
TABLES
  0
TABLE
  2
VPORT
  5
8
330
0
100
AcDbSymbolTable
 70
     1
  0
VPORT
  5
29
330
8
100
AcDbSymbolTableRecord
100
AcDbViewportTableRecord
  2
*Active
 70
     0
 10
0.0
 20
0.0
 11
1.0
 21
1.0
 12
139.7
 22
107.95
 13
0.0
 23
0.0
 14
10.0
 24
10.0
 15
10.0
 25
10.0
 16
0.0
 26
0.0
 36
1.0
 17
0.0
 27
0.0
 37
0.0
 40
215.9
 41
1.2941176471
 42
50.0
 43
0.0
 44
0.0
 50
0.0
 51
0.0
 71
     0
 72
  2000
 73
     1
 74
     3
 75
     0
 76
     0
 77
     0
 78
     0
281
     0
 65
     1
110
0.0
120
0.0
130
0.0
111
1.0
121
0.0
131
0.0
112
0.0
122
1.0
132
0.0
 79
     0
146
0.0
  0
ENDTAB
  0
TABLE
  2
LTYPE
  5
5
330
0
100
AcDbSymbolTable
 70
     6
  0
LTYPE
  5
14
330
5
100
AcDbSymbolTableRecord
100
AcDbLinetypeTableRecord
  2
ByBlock
 70
     0
  3

 72
    65
 73
     0
 40
0.0
  0
LTYPE
  5
15
330
5
100
AcDbSymbolTableRecord
100
AcDbLinetypeTableRecord
  2
ByLayer
 70
     0
  3

 72
    65
 73
     0
 40
0.0
  0
LTYPE
  5
16
330
5
100
AcDbSymbolTableRecord
100
AcDbLinetypeTableRecord
  2
Continuous
 70
     0
  3
Solid line
 72
    65
 73
     0
 40
0.0
  0
LTYPE
  5
6E
330
5
100
AcDbSymbolTableRecord
100
AcDbLinetypeTableRecord
  2
HIDDEN
 70
     0
  3
Hidden __ __ __ __ __ __ __ __ __ __ __ __ __ __
 72
    65
 73
     2
 40
1.905
 49
1.27
 74
     0
 49
-0.635
 74
     0
  0
LTYPE
  5
6F
330
5
100
AcDbSymbolTableRecord
100
AcDbLinetypeTableRecord
  2
PHANTOM
 70
     0
  3
Phantom ______  __  __  ______  __  __  ______
 72
    65
 73
     6
 40
12.7
 49
6.35
 74
     0
 49
-1.27
 74
     0
 49
1.27
 74
     0
 49
-1.27
 74
     0
 49
1.27
 74
     0
 49
-1.27
 74
     0
  0
LTYPE
  5
70
330
5
100
AcDbSymbolTableRecord
100
AcDbLinetypeTableRecord
  2
CENTER
 70
     0
  3
Center ____ _ ____ _ ____ _ ____ _ ____ _ ____
 72
    65
 73
     4
 40
10.16
 49
6.35
 74
     0
 49
-1.27
 74
     0
 49
1.27
 74
     0
 49
-1.27
 74
     0
  0
LTYPE
  5
71
330
5
100
AcDbSymbolTableRecord
100
AcDbLinetypeTableRecord
  2
CENTERX2
 70
     0
  3
Center (2x) ________  __  ________  __  _____
 72
    65
 73
     4
 40
20.32
 49
12.7
 74
     0
 49
-2.54
 74
     0
 49
2.54
 74
     0
 49
-2.54
 74
     0
  0
LTYPE
  5
72
330
5
100
AcDbSymbolTableRecord
100
AcDbLinetypeTableRecord
  2
DOT2
 70
     0
  3
Dot (.5x) ........................................
 72
    65
 73
     2
 40
0.635
 49
0.0
 74
     0
 49
-0.635
 74
     0
  0
ENDTAB
  0
TABLE
  2
LAYER
  5
2
330
0
100
AcDbSymbolTable
 70
    17
  0
LAYER
  5
10
330
2
100
AcDbSymbolTableRecord
100
AcDbLayerTableRecord
  2
0
 70
     0
 62
     7
  6
Continuous
370
    -3
390
F
  0
LAYER
  5
73
330
2
100
AcDbSymbolTableRecord
100
AcDbLayerTableRecord
  2
FORMAT
 70
     0
 62
     7
  6
Continuous
370
    -3
390
F
  0
LAYER
  5
74
330
2
100
AcDbSymbolTableRecord
100
AcDbLayerTableRecord
  2
YARDIMCI_GEOMETRI
 70
     0
 62
    -6
  6
Continuous
290
     0
370
    -3
390
F
  0
LAYER
  5
75
330
2
100
AcDbSymbolTableRecord
100
AcDbLayerTableRecord
  2
SAYFA_CERCEVESI
 70
     0
 62
     7
  6
Continuous
370
    25
390
F
  0
LAYER
  5
76
330
2
100
AcDbSymbolTableRecord
100
AcDbLayerTableRecord
  2
ANTET
 70
     0
 62
     7
  6
Continuous
370
    -3
390
F
  0
LAYER
  5
77
330
2
100
AcDbSymbolTableRecord
100
AcDbLayerTableRecord
  2
OLCU
 70
     0
 62
   150
  6
Continuous
370
    -3
390
F
  0
LAYER
  5
78
330
2
100
AcDbSymbolTableRecord
100
AcDbLayerTableRecord
  2
METIN
 70
     0
 62
    96
  6
Continuous
370
    -3
390
F
  0
LAYER
  5
79
330
2
100
AcDbSymbolTableRecord
100
AcDbLayerTableRecord
  2
BALON
 70
     0
 62
     5
  6
Continuous
370
    -3
390
F
  0
LAYER
  5
7A
330
2
100
AcDbSymbolTableRecord
100
AcDbLayerTableRecord
  2
VURGU
 70
     0
 62
     7
  6
Continuous
370
    -3
390
F
  0
LAYER
  5
7B
330
2
100
AcDbSymbolTableRecord
100
AcDbLayerTableRecord
  2
SILIK
 70
     0
 62
     7
  6
Continuous
370
    -3
390
F
  0
LAYER
  5
7C
330
2
100
AcDbSymbolTableRecord
100
AcDbLayerTableRecord
  2
MODEL
 70
     0
 62
     7
  6
Continuous
370
    -3
390
F
  0
LAYER
  5
7D
330
2
100
AcDbSymbolTableRecord
100
AcDbLayerTableRecord
  2
DETAYLANDıRMA
 70
     0
 62
   190
  6
Continuous
370
    -3
390
F
  0
LAYER
  5
7E
330
2
100
AcDbSymbolTableRecord
100
AcDbLayerTableRecord
  2
TOLERANS
 70
     0
 62
   230
  6
Continuous
370
    -3
390
F
  0
LAYER
  5
7F
330
2
100
AcDbSymbolTableRecord
100
AcDbLayerTableRecord
  2
MERKEZ_CIZGILERI
 70
     0
 62
    30
  6
Continuous
370
    -3
390
F
  0
LAYER
  5
80
330
2
100
AcDbSymbolTableRecord
100
AcDbLayerTableRecord
  2
KESIT-DETAY_CIZGILERI
 70
     0
 62
     7
  6
Continuous
370
    -3
390
F
  0
LAYER
  5
81
330
2
100
AcDbSymbolTableRecord
100
AcDbLayerTableRecord
  2
\U+041E\U+0421\U+0415\U+0412\U+042B\U+0415
 70
     0
 62
     7
  6
Continuous
370
    -3
390
F
  0
LAYER
  5
82
330
2
100
AcDbSymbolTableRecord
100
AcDbLayerTableRecord
  2
\U+0412\U+041E\U+0414\U+042F\U+041D\U+042B\U+0415_\U+0417\U+041D\U+0410\U+041A\U+0418
 70
     0
 62
    11
  6
Continuous
370
    -3
390
F
  0
ENDTAB
  0
TABLE
  2
STYLE
  5
3
330
0
100
AcDbSymbolTable
 70
     1
  0
STYLE
  5
11
330
3
100
AcDbSymbolTableRecord
100
AcDbTextStyleTableRecord
  2
Standard
 70
     0
 40
0.0
 41
1.0
 50
0.0
 71
     0
 42
3.5
  3
txt
  4

  0
ENDTAB
  0
TABLE
  2
VIEW
  5
6
330
0
100
AcDbSymbolTable
 70
     0
  0
ENDTAB
  0
TABLE
  2
UCS
  5
7
330
0
100
AcDbSymbolTable
 70
     0
  0
ENDTAB
  0
TABLE
  2
APPID
  5
9
330
0
100
AcDbSymbolTable
 70
     1
  0
APPID
  5
12
330
9
100
AcDbSymbolTableRecord
100
AcDbRegAppTableRecord
  2
ACAD
 70
     0
  0
ENDTAB
  0
TABLE
  2
DIMSTYLE
  5
A
330
0
100
AcDbSymbolTable
 70
     1
100
AcDbDimStyleTable
  0
DIMSTYLE
105
27
330
A
100
AcDbSymbolTableRecord
100
AcDbDimStyleTableRecord
  2
ISO-25
 70
     0
 41
2.5
 42
0.625
 43
3.75
 44
1.25
 73
     0
 74
     0
 77
     1
 78
     8
140
2.5
141
2.5
143
0.0393700787
147
0.625
171
     3
172
     1
178
     0
271
     2
272
     2
274
     3
278
    44
283
     0
284
     8
340
11
  0
ENDTAB
  0
TABLE
  2
BLOCK_RECORD
  5
1
330
0
100
AcDbSymbolTable
 70
     2
  0
BLOCK_RECORD
  5
1F
330
1
100
AcDbSymbolTableRecord
100
AcDbBlockTableRecord
  2
*Model_Space
340
22
  0
BLOCK_RECORD
  5
1B
330
1
100
AcDbSymbolTableRecord
100
AcDbBlockTableRecord
  2
*Paper_Space
340
1E
  0
BLOCK_RECORD
  5
23
330
1
100
AcDbSymbolTableRecord
100
AcDbBlockTableRecord
  2
*Paper_Space0
340
26
  0
BLOCK_RECORD
  5
88
330
1
100
AcDbSymbolTableRecord
100
AcDbBlockTableRecord
  2
SW_CENTERMARKSYMBOL_0
340
0
102
{BLKREFS
331
93
102
}
  0
ENDTAB
  0
ENDSEC
  0
SECTION
  2
BLOCKS
  0
BLOCK
  5
20
330
1F
100
AcDbEntity
  8
0
100
AcDbBlockBegin
  2
*Model_Space
 70
     0
 10
0.0
 20
0.0
 30
0.0
  3
*Model_Space
  1

  0
ENDBLK
  5
21
330
1F
100
AcDbEntity
  8
0
100
AcDbBlockEnd
  0
BLOCK
  5
1C
330
1B
100
AcDbEntity
 67
     1
  8
0
100
AcDbBlockBegin
  2
*Paper_Space
 70
     0
 10
0.0
 20
0.0
 30
0.0
  3
*Paper_Space
  1

  0
ENDBLK
  5
1D
330
1B
100
AcDbEntity
 67
     1
  8
0
100
AcDbBlockEnd
  0
BLOCK
  5
24
330
23
100
AcDbEntity
  8
0
100
AcDbBlockBegin
  2
*Paper_Space0
 70
     0
 10
0.0
 20
0.0
 30
0.0
  3
*Paper_Space0
  1

  0
ENDBLK
  5
25
330
23
100
AcDbEntity
  8
0
100
AcDbBlockEnd
  0
BLOCK
  5
89
330
88
100
AcDbEntity
  8
0
100
AcDbBlockBegin
  2
SW_CENTERMARKSYMBOL_0
 70
     0
 10
0.0
 20
0.0
 30
0.0
  3
SW_CENTERMARKSYMBOL_0
  1

  0
LINE
  5
8B
330
88
100
AcDbEntity
  8
FORMAT
 62
     0
100
AcDbLine
 10
0.0
 20
0.0
 30
0.0
 11
0.0
 21
2.5
 31
0.0
  0
LINE
  5
8C
330
88
100
AcDbEntity
  8
FORMAT
 62
     0
100
AcDbLine
 10
0.0
 20
0.0
 30
0.0
 11
-2.5
 21
0.0
 31
0.0
  0
LINE
  5
8D
330
88
100
AcDbEntity
  8
FORMAT
 62
     0
100
AcDbLine
 10
0.0
 20
0.0
 30
0.0
 11
0.0
 21
-2.5
 31
0.0
  0
LINE
  5
8E
330
88
100
AcDbEntity
  8
FORMAT
 62
     0
100
AcDbLine
 10
0.0
 20
0.0
 30
0.0
 11
2.5
 21
0.0
 31
0.0
  0
LINE
  5
8F
330
88
100
AcDbEntity
  8
FORMAT
 62
     0
100
AcDbLine
 10
0.0
 20
5.0
 30
0.0
 11
0.0
 21
317.5
 31
0.0
  0
LINE
  5
90
330
88
100
AcDbEntity
  8
FORMAT
 62
     0
100
AcDbLine
 10
-5.0
 20
0.0
 30
0.0
 11
-317.5
 21
0.0
 31
0.0
  0
LINE
  5
91
330
88
100
AcDbEntity
  8
FORMAT
 62
     0
100
AcDbLine
 10
0.0
 20
-5.0
 30
0.0
 11
0.0
 21
-317.5
 31
0.0
  0
LINE
  5
92
330
88
100
AcDbEntity
  8
FORMAT
 62
     0
100
AcDbLine
 10
5.0
 20
0.0
 30
0.0
 11
317.5
 21
0.0
 31
0.0
  0
ENDBLK
  5
8A
330
88
100
AcDbEntity
  8
0
100
AcDbBlockEnd
  0
ENDSEC
  0
SECTION
  2
ENTITIES
  0
CIRCLE
  5
83
330
1F
100
AcDbEntity
  8
0
  6
Continuous
 62
     7
370
    25
100
AcDbCircle
 10
141.7575940467
 20
109.0966674065
 30
0.0
 40
198.3
  0
CIRCLE
  5
84
330
1F
100
AcDbEntity
  8
0
  6
Continuous
 62
     7
370
    25
100
AcDbCircle
 10
141.7575940467
 20
109.0966674065
 30
0.0
 40
225.0
  0
CIRCLE
  5
85
330
1F
100
AcDbEntity
  8
0
  6
Continuous
 62
     7
370
    25
100
AcDbCircle
 10
141.7575940467
 20
109.0966674065
 30
0.0
 40
250.0
  0
CIRCLE
  5
86
330
1F
100
AcDbEntity
  8
0
  6
Continuous
 62
     7
370
    25
100
AcDbCircle
 10
141.7575940467
 20
109.0966674065
 30
0.0
 40
280.0
  0
CIRCLE
  5
87
330
1F
100
AcDbEntity
  8
0
  6
Continuous
 62
     7
370
    25
100
AcDbCircle
 10
141.7575940467
 20
109.0966674065
 30
0.0
 40
315.0
  0
INSERT
  5
93
330
1F
100
AcDbEntity
  8
FORMAT
 62
     7
100
AcDbBlockReference
  2
SW_CENTERMARKSYMBOL_0
 10
141.7575940467
 20
109.0966674065
 30
0.0
  0
LINE
  5
94
330
1F
100
AcDbEntity
  8
0
  6
Continuous
 62
     7
370
    25
100
AcDbLine
 10
935.3226103245
 20
-205.9033325935
 30
0.0
 11
1007.3226103245
 21
-205.9033325935
 31
0.0
  0
LINE
  5
95
330
1F
100
AcDbEntity
  8
0
  6
Continuous
 62
     7
370
    25
100
AcDbLine
 10
1007.3226103245
 20
424.0966674065
 30
0.0
 11
935.3226103245
 21
424.0966674065
 31
0.0
  0
LINE
  5
96
330
1F
100
AcDbEntity
  8
0
  6
Continuous
 62
     7
370
    25
100
AcDbLine
 10
1007.3226103245
 20
-205.9033325935
 30
0.0
 11
1018.2114992134
 21
-170.9033325935
 31
0.0
  0
LINE
  5
97
330
1F
100
AcDbEntity
  8
0
  6
Continuous
 62
     7
370
    25
100
AcDbLine
 10
1018.2114992134
 20
389.0966674065
 30
0.0
 11
1007.3226103245
 21
424.0966674065
 31
0.0
  0
LINE
  5
98
330
1F
100
AcDbEntity
  8
0
  6
Continuous
 62
     7
370
    25
100
AcDbLine
 10
1018.2114992134
 20
-170.9033325935
 30
0.0
 11
1054.2114992134
 21
-170.9033325935
 31
0.0
  0
LINE
  5
99
330
1F
100
AcDbEntity
  8
0
  6
Continuous
 62
     7
370
    25
100
AcDbLine
 10
1054.2114992134
 20
389.0966674065
 30
0.0
 11
1018.2114992134
 21
389.0966674065
 31
0.0
  0
LINE
  5
9A
330
1F
100
AcDbEntity
  8
0
  6
Continuous
 62
     7
370
    25
100
AcDbLine
 10
1054.2114992134
 20
-170.9033325935
 30
0.0
 11
1063.5448325467
 21
-140.9033325935
 31
0.0
  0
LINE
  5
9B
330
1F
100
AcDbEntity
  8
0
  6
Continuous
 62
     7
370
    25
100
AcDbLine
 10
1063.5448325467
 20
359.0966674065
 30
0.0
 11
1054.2114992134
 21
389.0966674065
 31
0.0
  0
LINE
  5
9C
330
1F
100
AcDbEntity
  8
0
  6
Continuous
 62
     7
370
    25
100
AcDbLine
 10
1063.5448325467
 20
-140.9033325935
 30
0.0
 11
1099.5448325467
 21
-140.9033325935
 31
0.0
  0
LINE
  5
9D
330
1F
100
AcDbEntity
  8
0
  6
Continuous
 62
     7
370
    25
100
AcDbLine
 10
1099.5448325467
 20
359.0966674065
 30
0.0
 11
1063.5448325467
 21
359.0966674065
 31
0.0
  0
LINE
  5
9E
330
1F
100
AcDbEntity
  8
0
  6
Continuous
 62
     7
370
    25
100
AcDbLine
 10
1099.5448325467
 20
-140.9033325935
 30
0.0
 11
1107.3226103245
 21
-115.9033325935
 31
0.0
  0
LINE
  5
9F
330
1F
100
AcDbEntity
  8
0
  6
Continuous
 62
     7
370
    25
100
AcDbLine
 10
1107.3226103245
 20
334.0966674065
 30
0.0
 11
1099.5448325467
 21
359.0966674065
 31
0.0
  0
LINE
  5
A0
330
1F
100
AcDbEntity
  8
0
  6
Continuous
 62
     7
370
    25
100
AcDbLine
 10
1107.3226103245
 20
-115.9033325935
 30
0.0
 11
1143.3226103245
 21
-115.9033325935
 31
0.0
  0
LINE
  5
A1
330
1F
100
AcDbEntity
  8
0
  6
Continuous
 62
     7
370
    25
100
AcDbLine
 10
1143.3226103245
 20
334.0966674065
 30
0.0
 11
1107.3226103245
 21
334.0966674065
 31
0.0
  0
LINE
  5
A2
330
1F
100
AcDbEntity
  8
0
  6
Continuous
 62
     7
370
    25
100
AcDbLine
 10
1007.3226103245
 20
109.0966674065
 30
0.0
 11
1007.3226103245
 21
424.0966674065
 31
0.0
  0
LINE
  5
A3
330
1F
100
AcDbEntity
  8
0
  6
Continuous
 62
     7
370
    25
100
AcDbLine
 10
1007.3226103245
 20
-205.9033325935
 30
0.0
 11
1007.3226103245
 21
109.0966674065
 31
0.0
  0
LINE
  5
A4
330
1F
100
AcDbEntity
  8
0
  6
Continuous
 62
     7
370
    25
100
AcDbLine
 10
935.3226103245
 20
109.0966674065
 30
0.0
 11
935.3226103245
 21
424.0966674065
 31
0.0
  0
LINE
  5
A5
330
1F
100
AcDbEntity
  8
0
  6
Continuous
 62
     7
370
    25
100
AcDbLine
 10
935.3226103245
 20
-205.9033325935
 30
0.0
 11
935.3226103245
 21
109.0966674065
 31
0.0
  0
LINE
  5
A6
330
1F
100
AcDbEntity
  8
0
  6
Continuous
 62
     7
370
    25
100
AcDbLine
 10
1018.2114992134
 20
109.0966674065
 30
0.0
 11
1018.2114992134
 21
389.0966674065
 31
0.0
  0
LINE
  5
A7
330
1F
100
AcDbEntity
  8
0
  6
Continuous
 62
     7
370
    25
100
AcDbLine
 10
1018.2114992134
 20
-170.9033325935
 30
0.0
 11
1018.2114992134
 21
109.0966674065
 31
0.0
  0
LINE
  5
A8
330
1F
100
AcDbEntity
  8
0
  6
Continuous
 62
     7
370
    25
100
AcDbLine
 10
1054.2114992134
 20
109.0966674065
 30
0.0
 11
1054.2114992134
 21
389.0966674065
 31
0.0
  0
LINE
  5
A9
330
1F
100
AcDbEntity
  8
0
  6
Continuous
 62
     7
370
    25
100
AcDbLine
 10
1054.2114992134
 20
-170.9033325935
 30
0.0
 11
1054.2114992134
 21
109.0966674065
 31
0.0
  0
LINE
  5
AA
330
1F
100
AcDbEntity
  8
0
  6
Continuous
 62
     7
370
    25
100
AcDbLine
 10
1063.5448325467
 20
109.0966674065
 30
0.0
 11
1063.5448325467
 21
359.0966674065
 31
0.0
  0
LINE
  5
AB
330
1F
100
AcDbEntity
  8
0
  6
Continuous
 62
     7
370
    25
100
AcDbLine
 10
1063.5448325467
 20
-140.9033325935
 30
0.0
 11
1063.5448325467
 21
109.0966674065
 31
0.0
  0
LINE
  5
AC
330
1F
100
AcDbEntity
  8
0
  6
Continuous
 62
     7
370
    25
100
AcDbLine
 10
1099.5448325467
 20
109.0966674065
 30
0.0
 11
1099.5448325467
 21
359.0966674065
 31
0.0
  0
LINE
  5
AD
330
1F
100
AcDbEntity
  8
0
  6
Continuous
 62
     7
370
    25
100
AcDbLine
 10
1099.5448325467
 20
-140.9033325935
 30
0.0
 11
1099.5448325467
 21
109.0966674065
 31
0.0
  0
LINE
  5
AE
330
1F
100
AcDbEntity
  8
0
  6
Continuous
 62
     7
370
    25
100
AcDbLine
 10
1107.3226103245
 20
109.0966674065
 30
0.0
 11
1107.3226103245
 21
334.0966674065
 31
0.0
  0
LINE
  5
AF
330
1F
100
AcDbEntity
  8
0
  6
Continuous
 62
     7
370
    25
100
AcDbLine
 10
1107.3226103245
 20
-115.9033325935
 30
0.0
 11
1107.3226103245
 21
109.0966674065
 31
0.0
  0
LINE
  5
B0
330
1F
100
AcDbEntity
  8
0
  6
Continuous
 62
     7
370
    25
100
AcDbLine
 10
1143.3226103245
 20
109.0966674065
 30
0.0
 11
1143.3226103245
 21
334.0966674065
 31
0.0
  0
LINE
  5
B1
330
1F
100
AcDbEntity
  8
0
  6
Continuous
 62
     7
370
    25
100
AcDbLine
 10
1143.3226103245
 20
-115.9033325935
 30
0.0
 11
1143.3226103245
 21
109.0966674065
 31
0.0
  0
LINE
  5
B2
330
1F
100
AcDbEntity
  8
0
  6
Continuous
 62
     7
370
    25
100
AcDbLine
 10
-553.944436381
 20
424.0966674065
 30
0.0
 11
-625.944436381
 21
424.0966674065
 31
0.0
  0
LINE
  5
B3
330
1F
100
AcDbEntity
  8
0
  6
Continuous
 62
     7
370
    25
100
AcDbLine
 10
-625.944436381
 20
-205.9033325935
 30
0.0
 11
-553.944436381
 21
-205.9033325935
 31
0.0
  0
LINE
  5
B4
330
1F
100
AcDbEntity
  8
0
  6
Continuous
 62
     7
370
    25
100
AcDbLine
 10
-625.944436381
 20
424.0966674065
 30
0.0
 11
-636.8333252699
 21
389.0966674065
 31
0.0
  0
LINE
  5
B5
330
1F
100
AcDbEntity
  8
0
  6
Continuous
 62
     7
370
    25
100
AcDbLine
 10
-636.8333252699
 20
-170.9033325935
 30
0.0
 11
-625.944436381
 21
-205.9033325935
 31
0.0
  0
LINE
  5
B6
330
1F
100
AcDbEntity
  8
0
  6
Continuous
 62
     7
370
    25
100
AcDbLine
 10
-636.8333252699
 20
389.0966674065
 30
0.0
 11
-672.8333252699
 21
389.0966674065
 31
0.0
  0
LINE
  5
B7
330
1F
100
AcDbEntity
  8
0
  6
Continuous
 62
     7
370
    25
100
AcDbLine
 10
-672.8333252699
 20
-170.9033325935
 30
0.0
 11
-636.8333252699
 21
-170.9033325935
 31
0.0
  0
LINE
  5
B8
330
1F
100
AcDbEntity
  8
0
  6
Continuous
 62
     7
370
    25
100
AcDbLine
 10
-672.8333252699
 20
389.0966674065
 30
0.0
 11
-682.1666586032
 21
359.0966674065
 31
0.0
  0
LINE
  5
B9
330
1F
100
AcDbEntity
  8
0
  6
Continuous
 62
     7
370
    25
100
AcDbLine
 10
-682.1666586032
 20
-140.9033325935
 30
0.0
 11
-672.8333252699
 21
-170.9033325935
 31
0.0
  0
LINE
  5
BA
330
1F
100
AcDbEntity
  8
0
  6
Continuous
 62
     7
370
    25
100
AcDbLine
 10
-682.1666586032
 20
359.0966674065
 30
0.0
 11
-718.1666586032
 21
359.0966674065
 31
0.0
  0
LINE
  5
BB
330
1F
100
AcDbEntity
  8
0
  6
Continuous
 62
     7
370
    25
100
AcDbLine
 10
-718.1666586032
 20
-140.9033325935
 30
0.0
 11
-682.1666586032
 21
-140.9033325935
 31
0.0
  0
LINE
  5
BC
330
1F
100
AcDbEntity
  8
0
  6
Continuous
 62
     7
370
    25
100
AcDbLine
 10
-718.1666586032
 20
359.0966674065
 30
0.0
 11
-725.944436381
 21
334.0966674065
 31
0.0
  0
LINE
  5
BD
330
1F
100
AcDbEntity
  8
0
  6
Continuous
 62
     7
370
    25
100
AcDbLine
 10
-725.944436381
 20
-115.9033325935
 30
0.0
 11
-718.1666586032
 21
-140.9033325935
 31
0.0
  0
LINE
  5
BE
330
1F
100
AcDbEntity
  8
0
  6
Continuous
 62
     7
370
    25
100
AcDbLine
 10
-725.944436381
 20
334.0966674065
 30
0.0
 11
-761.944436381
 21
334.0966674065
 31
0.0
  0
LINE
  5
BF
330
1F
100
AcDbEntity
  8
0
  6
Continuous
 62
     7
370
    25
100
AcDbLine
 10
-761.944436381
 20
-115.9033325935
 30
0.0
 11
-725.944436381
 21
-115.9033325935
 31
0.0
  0
LINE
  5
C0
330
1F
100
AcDbEntity
  8
0
  6
Continuous
 62
     7
370
    25
100
AcDbLine
 10
-625.944436381
 20
424.0966674065
 30
0.0
 11
-625.944436381
 21
-205.9033325935
 31
0.0
  0
LINE
  5
C1
330
1F
100
AcDbEntity
  8
0
  6
Continuous
 62
     7
370
    25
100
AcDbLine
 10
-553.944436381
 20
424.0966674065
 30
0.0
 11
-553.944436381
 21
-205.9033325935
 31
0.0
  0
LINE
  5
C2
330
1F
100
AcDbEntity
  8
0
  6
Continuous
 62
     7
370
    25
100
AcDbLine
 10
-636.8333252699
 20
389.0966674065
 30
0.0
 11
-636.8333252699
 21
-170.9033325935
 31
0.0
  0
LINE
  5
C3
330
1F
100
AcDbEntity
  8
0
  6
Continuous
 62
     7
370
    25
100
AcDbLine
 10
-672.8333252699
 20
389.0966674065
 30
0.0
 11
-672.8333252699
 21
-170.9033325935
 31
0.0
  0
LINE
  5
C4
330
1F
100
AcDbEntity
  8
0
  6
Continuous
 62
     7
370
    25
100
AcDbLine
 10
-682.1666586032
 20
359.0966674065
 30
0.0
 11
-682.1666586032
 21
-140.9033325935
 31
0.0
  0
LINE
  5
C5
330
1F
100
AcDbEntity
  8
0
  6
Continuous
 62
     7
370
    25
100
AcDbLine
 10
-718.1666586032
 20
359.0966674065
 30
0.0
 11
-718.1666586032
 21
-140.9033325935
 31
0.0
  0
LINE
  5
C6
330
1F
100
AcDbEntity
  8
0
  6
Continuous
 62
     7
370
    25
100
AcDbLine
 10
-725.944436381
 20
334.0966674065
 30
0.0
 11
-725.944436381
 21
-115.9033325935
 31
0.0
  0
LINE
  5
C7
330
1F
100
AcDbEntity
  8
0
  6
Continuous
 62
     7
370
    25
100
AcDbLine
 10
-761.944436381
 20
334.0966674065
 30
0.0
 11
-761.944436381
 21
-115.9033325935
 31
0.0
  0
LINE
  5
C8
330
1F
100
AcDbEntity
  8
0
  6
Continuous
 62
     7
370
    25
100
AcDbLine
 10
456.7575940467
 20
754.7668014446
 30
0.0
 11
456.7575940467
 21
826.7668014446
 31
0.0
  0
LINE
  5
C9
330
1F
100
AcDbEntity
  8
0
  6
Continuous
 62
     7
370
    25
100
AcDbLine
 10
-173.2424059533
 20
826.7668014446
 30
0.0
 11
-173.2424059533
 21
754.7668014446
 31
0.0
  0
LINE
  5
CA
330
1F
100
AcDbEntity
  8
0
  6
Continuous
 62
     7
370
    25
100
AcDbLine
 10
456.7575940467
 20
826.7668014446
 30
0.0
 11
421.7575940467
 21
837.6556903335
 31
0.0
  0
LINE
  5
CB
330
1F
100
AcDbEntity
  8
0
  6
Continuous
 62
     7
370
    25
100
AcDbLine
 10
-138.2424059533
 20
837.6556903335
 30
0.0
 11
-173.2424059533
 21
826.7668014446
 31
0.0
  0
LINE
  5
CC
330
1F
100
AcDbEntity
  8
0
  6
Continuous
 62
     7
370
    25
100
AcDbLine
 10
421.7575940467
 20
837.6556903335
 30
0.0
 11
421.7575940467
 21
873.6556903335
 31
0.0
  0
LINE
  5
CD
330
1F
100
AcDbEntity
  8
0
  6
Continuous
 62
     7
370
    25
100
AcDbLine
 10
-138.2424059533
 20
873.6556903335
 30
0.0
 11
-138.2424059533
 21
837.6556903335
 31
0.0
  0
LINE
  5
CE
330
1F
100
AcDbEntity
  8
0
  6
Continuous
 62
     7
370
    25
100
AcDbLine
 10
421.7575940467
 20
873.6556903335
 30
0.0
 11
391.7575940467
 21
882.9890236668
 31
0.0
  0
LINE
  5
CF
330
1F
100
AcDbEntity
  8
0
  6
Continuous
 62
     7
370
    25
100
AcDbLine
 10
-108.2424059533
 20
882.9890236668
 30
0.0
 11
-138.2424059533
 21
873.6556903335
 31
0.0
  0
LINE
  5
D0
330
1F
100
AcDbEntity
  8
0
  6
Continuous
 62
     7
370
    25
100
AcDbLine
 10
391.7575940467
 20
882.9890236668
 30
0.0
 11
391.7575940467
 21
918.9890236668
 31
0.0
  0
LINE
  5
D1
330
1F
100
AcDbEntity
  8
0
  6
Continuous
 62
     7
370
    25
100
AcDbLine
 10
-108.2424059533
 20
918.9890236668
 30
0.0
 11
-108.2424059533
 21
882.9890236668
 31
0.0
  0
LINE
  5
D2
330
1F
100
AcDbEntity
  8
0
  6
Continuous
 62
     7
370
    25
100
AcDbLine
 10
391.7575940467
 20
918.9890236668
 30
0.0
 11
366.7575940467
 21
926.7668014446
 31
0.0
  0
LINE
  5
D3
330
1F
100
AcDbEntity
  8
0
  6
Continuous
 62
     7
370
    25
100
AcDbLine
 10
-83.2424059533
 20
926.7668014446
 30
0.0
 11
-108.2424059533
 21
918.9890236668
 31
0.0
  0
LINE
  5
D4
330
1F
100
AcDbEntity
  8
0
  6
Continuous
 62
     7
370
    25
100
AcDbLine
 10
366.7575940467
 20
926.7668014446
 30
0.0
 11
366.7575940467
 21
962.7668014446
 31
0.0
  0
LINE
  5
D5
330
1F
100
AcDbEntity
  8
0
  6
Continuous
 62
     7
370
    25
100
AcDbLine
 10
-83.2424059533
 20
962.7668014446
 30
0.0
 11
-83.2424059533
 21
926.7668014446
 31
0.0
  0
LINE
  5
D6
330
1F
100
AcDbEntity
  8
0
  6
Continuous
 62
     7
370
    25
100
AcDbLine
 10
456.7575940467
 20
826.7668014446
 30
0.0
 11
-173.2424059533
 21
826.7668014446
 31
0.0
  0
LINE
  5
D7
330
1F
100
AcDbEntity
  8
0
  6
Continuous
 62
     7
370
    25
100
AcDbLine
 10
456.7575940467
 20
754.7668014446
 30
0.0
 11
-173.2424059533
 21
754.7668014446
 31
0.0
  0
LINE
  5
D8
330
1F
100
AcDbEntity
  8
0
  6
Continuous
 62
     7
370
    25
100
AcDbLine
 10
421.7575940467
 20
837.6556903335
 30
0.0
 11
-138.2424059533
 21
837.6556903335
 31
0.0
  0
LINE
  5
D9
330
1F
100
AcDbEntity
  8
0
  6
Continuous
 62
     7
370
    25
100
AcDbLine
 10
421.7575940467
 20
873.6556903335
 30
0.0
 11
-138.2424059533
 21
873.6556903335
 31
0.0
  0
LINE
  5
DA
330
1F
100
AcDbEntity
  8
0
  6
Continuous
 62
     7
370
    25
100
AcDbLine
 10
391.7575940467
 20
882.9890236668
 30
0.0
 11
-108.2424059533
 21
882.9890236668
 31
0.0
  0
LINE
  5
DB
330
1F
100
AcDbEntity
  8
0
  6
Continuous
 62
     7
370
    25
100
AcDbLine
 10
391.7575940467
 20
918.9890236668
 30
0.0
 11
-108.2424059533
 21
918.9890236668
 31
0.0
  0
LINE
  5
DC
330
1F
100
AcDbEntity
  8
0
  6
Continuous
 62
     7
370
    25
100
AcDbLine
 10
366.7575940467
 20
926.7668014446
 30
0.0
 11
-83.2424059533
 21
926.7668014446
 31
0.0
  0
LINE
  5
DD
330
1F
100
AcDbEntity
  8
0
  6
Continuous
 62
     7
370
    25
100
AcDbLine
 10
366.7575940467
 20
962.7668014446
 30
0.0
 11
-83.2424059533
 21
962.7668014446
 31
0.0
  0
LINE
  5
DE
330
1F
100
AcDbEntity
  8
0
  6
Continuous
 62
     7
370
    25
100
AcDbLine
 10
1115.2095785064
 20
-373.9572486739
 30
0.0
 11
1064.297890261
 21
-344.5665566483
 31
0.0
  0
LINE
  5
DF
330
1F
100
AcDbEntity
  8
0
  6
Continuous
 62
     7
370
    25
100
AcDbLine
 10
749.3234894806
 20
-890.1773399481
 30
0.0
 11
800.2351777261
 21
-919.5680319737
 31
0.0
  0
LINE
  5
E0
330
1F
100
AcDbEntity
  8
0
  6
Continuous
 62
     7
370
    25
100
AcDbLine
 10
1039.0997052669
 20
-370.4333782228
 30
0.0
 11
1013.6438611442
 21
-355.73803221
 31
0.0
  0
LINE
  5
E1
330
1F
100
AcDbEntity
  8
0
  6
Continuous
 62
     7
370
    25
100
AcDbLine
 10
733.6666160061
 20
-840.7253951431
 30
0.0
 11
759.1224601288
 21
-855.420741156
 31
0.0
  0
LINE
  5
E2
330
1F
100
AcDbEntity
  8
0
  6
Continuous
 62
     7
370
    25
100
AcDbLine
 10
992.0454168636
 20
-377.9095935595
 30
0.0
 11
966.5895727409
 21
-363.2142475467
 31
0.0
  0
LINE
  5
E3
330
1F
100
AcDbEntity
  8
0
  6
Continuous
 62
     7
370
    25
100
AcDbLine
 10
716.6098895819
 20
-796.2386787371
 30
0.0
 11
742.0657337046
 21
-810.9340247499
 31
0.0
  0
LINE
  5
E4
330
1F
100
AcDbEntity
  8
0
  6
Continuous
 62
     7
370
    25
100
AcDbLine
 10
948.5908691737
 20
-381.6905486714
 30
0.0
 11
923.135025051
 21
-366.9952026586
 31
0.0
  0
LINE
  5
E5
330
1F
100
AcDbEntity
  8
0
  6
Continuous
 62
     7
370
    25
100
AcDbLine
 10
698.1533102079
 20
-756.7171907299
 30
0.0
 11
723.6091543306
 21
-771.4125367427
 31
0.0
  0
LWPOLYLINE
  5
E6
330
1F
100
AcDbEntity
  8
0
  6
Continuous
 62
     7
370
    25
100
AcDbPolyline
 90
       90
 70
   128
 43
0.0
 10
1039.0997052669
 20
-370.4333782228
 10
1042.1824672179
 20
-372.2931712252
 10
1046.9495887947
 20
-375.5042911648
 10
1051.5304351178
 20
-379.0145617628
 10
1055.9192343601
 20
-382.8195601082
 10
1060.110456672
 20
-386.9144919357
 10
1064.0988211492
 20
-391.2941976661
 10
1067.8793024866
 20
-395.9531589077
 10
1071.4471373101
 20
-400.8855054092
 10
1074.7978301782
 20
-406.0850224561
 10
1077.9271592466
 20
-411.5451587015
 10
1080.8311815874
 20
-417.2590344202
 10
1083.5062381573
 20
-423.2194501779
 10
1085.948958408
 20
-429.4188959015
 10
1088.1562645327
 20
-435.8495603425
 10
1090.1253753446
 20
-442.5033409187
 10
1091.8538097809
 20
-449.3718539234
 10
1093.3393900291
 20
-456.446445089
 10
1094.5802442707
 20
-463.7182004911
 10
1095.57480904
 20
-471.17795778
 10
1096.3218311938
 20
-478.8163177254
 10
1096.8203694907
 20
-486.623656059
 10
1097.0697957766
 20
-494.5901356013
 10
1097.0697957766
 20
-502.7057186562
 10
1096.8203694907
 20
-510.9601796584
 10
1096.3218311938
 20
-519.3431180576
 10
1095.57480904
 20
-527.8439714231
 10
1094.5802442707
 20
-536.4520287523
 10
1093.3393900291
 20
-545.1564439667
 10
1091.8538097809
 20
-553.9462495775
 10
1090.1253753446
 20
-562.8103705047
 10
1088.1562645327
 20
-571.7376380318
 10
1085.948958408
 20
-580.716803878
 10
1083.5062381573
 20
-589.7365543712
 10
1080.8311815874
 20
-598.7855247027
 10
1077.9271592466
 20
-607.8523132475
 10
1074.7978301782
 20
-616.9254959293
 10
1071.4471373101
 20
-625.9936406157
 10
1067.8793024866
 20
-635.0453215218
 10
1064.0988211492
 20
-644.0691336072
 10
1060.110456672
 20
-653.0537069457
 10
1055.9192343601
 20
-661.9877210517
 10
1051.5304351178
 20
-670.8599191438
 10
1046.9495887947
 20
-679.6591223284
 10
1042.1824672179
 20
-688.3742436846
 10
1037.2350769198
 20
-696.994302234
 10
1032.11365157
 20
-705.5084367767
 10
1026.8246441206
 20
-713.9059195757
 10
1021.3747186757
 20
-722.1761698747
 10
1015.7707420949
 20
-730.3087672289
 10
1010.0197753407
 20
-738.2934646352
 10
1004.129064582
 20
-746.1202014432
 10
998.106032064
 20
-753.7791160313
 10
991.9582667562
 20
-761.2605582328
 10
985.6935147904
 20
-768.5551014943
 10
979.3196697004
 20
-775.6535547538
 10
972.8447624766
 20
-782.5469740208
 10
966.2769514466
 20
-789.226673646
 10
959.6245119963
 20
-795.684237265
 10
952.8958261425
 20
-801.9115284028
 10
946.0993719718
 20
-807.9007007258
 10
939.2437129584
 20
-813.6442079282
 10
932.337487174
 20
-819.1348132399
 10
925.389396404
 20
-824.3655985452
 10
918.4081951834
 20
-829.3299730993
 10
911.4026797661
 20
-834.0216818328
 10
904.3816770416
 20
-838.4348132327
 10
897.3540334132
 20
-842.5638067913
 10
890.328603652
 20
-846.4034600119
 10
883.3142397392
 20
-849.9489349643
 10
876.3197797135
 20
-853.1957643804
 10
869.3540365347
 20
-856.1398572829
 10
862.4257869797
 20
-858.7775041399
 10
855.5437605836
 20
-861.1053815389
 10
848.7166286408
 20
-863.1205563743
 10
841.9529932793
 20
-864.820489543
 10
835.2613766218
 20
-866.2030391438
 10
828.650210048
 20
-867.266463176
 10
822.1278235713
 20
-868.0094217344
 10
815.7024353429
 20
-868.4309786975
 10
809.382141297
 20
-868.5306029073
 10
803.1749049501
 20
-868.308168838
 10
797.0885473669
 20
-867.7639567547
 10
791.130737306
 20
-866.8986523599
 10
785.308981557
 20
-865.7133459299
 10
779.6306154824
 20
-864.2095309405
 10
774.102793775
 20
-862.3891021858
 10
768.7324814428
 20
-860.2543533904
 10
763.5264450334
 20
-857.8079743196
 10
759.1224601288
 20
-855.420741156
  0
LWPOLYLINE
  5
E7
330
1F
100
AcDbEntity
  8
0
  6
Continuous
 62
     7
370
    25
100
AcDbPolyline
 90
      134
 70
   128
 43
0.0
 10
937.2484472249
 20
-345.0031223389
 10
943.8586634497
 20
-342.3571275761
 10
951.1771045179
 20
-339.7034635252
 10
958.4459939558
 20
-337.35991978
 10
965.6572133406
 20
-335.3291137803
 10
972.8027086592
 20
-333.6133136773
 10
979.8744993043
 20
-332.2144358012
 10
986.864686987
 20
-331.1340425203
 10
993.7654645586
 20
-330.373340496
 10
1000.5691247301
 20
-329.9331793357
 10
1007.2680686805
 20
-329.8140506433
 10
1013.854814543
 20
-330.0160874702
 10
1020.3220057622
 20
-330.5390641672
 10
1026.6624193098
 20
-331.3823966359
 10
1032.8689737519
 20
-332.5451429814
 10
1038.9347371584
 20
-334.0260045642
 10
1044.8529348447
 20
-335.8233274509
 10
1050.6169569383
 20
-337.9351042606
 10
1056.2203657611
 20
-340.358976408
 10
1061.6569030199
 20
-343.0922367368
 10
1066.9204967953
 20
-346.1318325435
 10
1072.0052683241
 20
-349.4743689872
 10
1076.9055385645
 20
-353.1161128806
 10
1081.6158345393
 20
-357.0529968599
 10
1086.1308954483
 20
-361.2806239277
 10
1090.4456785439
 20
-365.7942723632
 10
1094.5553647633
 20
-370.5889009965
 10
1098.4553641109
 20
-375.6591548386
 10
1102.1413207846
 20
-380.9993710621
 10
1105.6091180404
 20
-386.6035853262
 10
1108.8548827909
 20
-392.465538438
 10
1111.8749899306
 20
-398.5786833428
 10
1114.6660663847
 20
-404.9361924371
 10
1117.2249948766
 20
-411.5309651935
 10
1119.5489174093
 20
-418.3556360915
 10
1121.6352384576
 20
-425.4025828435
 10
1123.4816278668
 20
-432.6639349081
 10
1125.0860234552
 20
-440.1315822808
 10
1126.4466333175
 20
-447.7971845511
 10
1127.5619378258
 20
-455.6521802185
 10
1128.4306913273
 20
-463.6877962539
 10
1129.0519235349
 20
-471.8950578985
 10
1129.4249406115
 20
-480.2647986871
 10
1129.5493259446
 20
-488.7876706861
 10
1129.4249406115
 20
-497.4541549338
 10
1129.0519235349
 20
-506.2545720718
 10
1128.4306913273
 20
-515.1790931561
 10
1127.5619378258
 20
-524.2177506339
 10
1126.4466333175
 20
-533.3604494771
 10
1125.0860234552
 20
-542.5969784563
 10
1123.4816278668
 20
-551.917021546
 10
1121.6352384576
 20
-561.3101694459
 10
1119.5489174093
 20
-570.7659312072
 10
1117.2249948766
 20
-580.2737459491
 10
1114.6660663847
 20
-589.8229946545
 10
1111.8749899306
 20
-599.4030120297
 10
1108.8548827909
 20
-609.0030984164
 10
1105.6091180404
 20
-618.6125317417
 10
1102.1413207846
 20
-628.2205794934
 10
1098.4553641109
 20
-637.8165107069
 10
1094.5553647633
 20
-647.38960795
 10
1090.4456785439
 20
-656.9291792933
 10
1086.1308954483
 20
-666.4245702516
 10
1081.6158345393
 20
-675.8651756835
 10
1076.9055385645
 20
-685.2404516359
 10
1072.0052683241
 20
-694.5399271207
 10
1066.9204967953
 20
-703.753215809
 10
1061.6569030199
 20
-712.8700276317
 10
1056.2203657611
 20
-721.880180272
 10
1050.6169569383
 20
-730.7736105379
 10
1044.8529348447
 20
-739.5403856013
 10
1038.9347371584
 20
-748.1707140918
 10
1032.8689737519
 20
-756.6549570327
 10
1026.6624193098
 20
-764.9836386059
 10
1020.3220057622
 20
-773.1474567356
 10
1013.854814543
 20
-781.1372934777
 10
1007.2680686805
 20
-788.9442252028
 10
1000.5691247301
 20
-796.5595325633
 10
993.7654645586
 20
-803.9747102315
 10
986.8646869869
 20
-811.1814763991
 10
979.8744993043
 20
-818.1717820269
 10
972.8027086592
 20
-824.9378198345
 10
965.6572133406
 20
-831.47203302
 10
958.4459939558
 20
-837.7671237002
 10
951.1771045178
 20
-843.8160610611
 10
943.8586634497
 20
-849.6120892108
 10
936.4988445172
 20
-855.1487347245
 10
929.1058677
 20
-860.4198138749
 10
921.687990011
 20
-865.4194395385
 10
914.2534962739
 20
-870.1420277706
 10
906.8106898708
 20
-874.5823040422
 10
899.3678834677
 20
-878.7353091305
 10
891.9333897306
 20
-882.5964046584
 10
884.5155120416
 20
-886.1612782741
 10
877.1225352244
 20
-889.4259484682
 10
869.7627162919
 20
-892.3867690203
 10
862.4442752238
 20
-895.0404330712
 10
855.1753857858
 20
-897.3839768163
 10
847.964166401
 20
-899.4147828161
 10
840.8186710824
 20
-901.130582919
 10
833.7468804373
 20
-902.5294607951
 10
826.7566927547
 20
-903.6098540761
 10
819.8559151831
 20
-904.3705561003
 10
813.0522550115
 20
-904.8107172606
 10
806.3533110612
 20
-904.9298459531
 10
799.7665651986
 20
-904.7278091261
 10
793.2993739794
 20
-904.2048324292
 10
786.9589604318
 20
-903.3614999605
 10
780.7524059897
 20
-902.198753615
 10
774.6866425832
 20
-900.7178920321
 10
768.7684448969
 20
-898.9205691455
 10
763.0044228034
 20
-896.8087923357
 10
757.4010139805
 20
-894.3849201883
 10
751.9644767218
 20
-891.6516598596
 10
746.7008829463
 20
-888.6120640528
 10
741.6161114176
 20
-885.2695276092
 10
736.7158411771
 20
-881.6277837158
 10
732.0055452023
 20
-877.6908997364
 10
727.4904842933
 20
-873.4632726687
 10
723.1757011978
 20
-868.9496242332
 10
719.0660149783
 20
-864.1549955998
 10
715.1660156307
 20
-859.0847417578
 10
711.4800589571
 20
-853.7445255342
 10
708.0122617012
 20
-848.1403112701
 10
704.7664969507
 20
-842.2783581584
 10
701.746389811
 20
-836.1652132536
 10
698.9553133569
 20
-829.8077041593
 10
696.396384865
 20
-823.2129314028
 10
694.0724623323
 20
-816.3882605049
 10
691.986141284
 20
-809.3413137529
 10
690.1397518749
 20
-802.0799616882
 10
688.5353562864
 20
-794.6123143156
 10
687.1747464242
 20
-786.9467120452
 10
686.1664999024
 20
-779.9369379496
  0
LWPOLYLINE
  5
E8
330
1F
100
AcDbEntity
  8
0
  6
Continuous
 62
     7
370
    25
100
AcDbPolyline
 90
       96
 70
   128
 43
0.0
 10
1115.2095785064
 20
-373.9572486739
 10
1117.8321850407
 20
-375.5225245692
 10
1122.9169565695
 20
-378.8650610128
 10
1127.8172268099
 20
-382.5068049062
 10
1132.5275227847
 20
-386.4436888856
 10
1137.0425836937
 20
-390.6713159533
 10
1141.3573667893
 20
-395.1849643888
 10
1145.4670530087
 20
-399.9795930221
 10
1149.3670523564
 20
-405.0498468642
 10
1153.05300903
 20
-410.3900630877
 10
1156.5208062858
 20
-415.9942773519
 10
1159.7665710363
 20
-421.8562304636
 10
1162.786678176
 20
-427.9693753684
 10
1165.5777546301
 20
-434.3268844627
 10
1168.136683122
 20
-440.9216572191
 10
1170.4606056548
 20
-447.7463281171
 10
1172.546926703
 20
-454.7932748691
 10
1174.3933161122
 20
-462.0546269337
 10
1175.9977117006
 20
-469.5222743064
 10
1177.3583215629
 20
-477.1878765767
 10
1178.4736260713
 20
-485.0428722441
 10
1179.3423795727
 20
-493.0784882795
 10
1179.9636117803
 20
-501.2857499241
 10
1180.3366288569
 20
-509.6554907127
 10
1180.46101419
 20
-518.1783627117
 10
1180.3366288569
 20
-526.8448469594
 10
1179.9636117803
 20
-535.6452640974
 10
1179.3423795727
 20
-544.5697851817
 10
1178.4736260713
 20
-553.6084426595
 10
1177.3583215629
 20
-562.7511415027
 10
1175.9977117006
 20
-571.9876704819
 10
1174.3933161122
 20
-581.3077135716
 10
1172.546926703
 20
-590.7008614716
 10
1170.4606056548
 20
-600.1566232328
 10
1168.136683122
 20
-609.6644379747
 10
1165.5777546301
 20
-619.2136866801
 10
1162.786678176
 20
-628.7937040553
 10
1159.7665710363
 20
-638.393790442
 10
1156.5208062858
 20
-648.0032237673
 10
1153.05300903
 20
-657.611271519
 10
1149.3670523564
 20
-667.2072027325
 10
1145.4670530087
 20
-676.7802999756
 10
1141.3573667893
 20
-686.3198713189
 10
1137.0425836937
 20
-695.8152622773
 10
1132.5275227847
 20
-705.2558677091
 10
1127.8172268099
 20
-714.6311436616
 10
1122.9169565695
 20
-723.9306191463
 10
1117.8321850407
 20
-733.1439078346
 10
1112.5685912653
 20
-742.2607196573
 10
1107.1320540066
 20
-751.2708722976
 10
1101.5286451837
 20
-760.1643025635
 10
1095.7646230901
 20
-768.9310776269
 10
1089.8464254038
 20
-777.5614061174
 10
1083.7806619973
 20
-786.0456490583
 10
1077.5741075552
 20
-794.3743306315
 10
1071.2336940077
 20
-802.5381487612
 10
1064.7665027885
 20
-810.5279855033
 10
1058.1797569259
 20
-818.3349172284
 10
1051.4808129756
 20
-825.9502245889
 10
1044.677152804
 20
-833.3654022571
 10
1037.7763752324
 20
-840.5721684247
 10
1030.7861875497
 20
-847.5624740525
 10
1023.7143969047
 20
-854.3285118601
 10
1016.568901586
 20
-860.8627250456
 10
1009.3576822012
 20
-867.1578157258
 10
1002.0887927633
 20
-873.2067530867
 10
994.7703516951
 20
-879.0027812364
 10
987.4105327626
 20
-884.5394267501
 10
980.0175559455
 20
-889.8105059005
 10
972.5996782564
 20
-894.8101315641
 10
965.1651845194
 20
-899.5327197962
 10
957.7223781162
 20
-903.9729960678
 10
950.2795717131
 20
-908.1260011562
 10
942.8450779761
 20
-911.987096684
 10
935.427200287
 20
-915.5519702997
 10
928.0342234699
 20
-918.8166404938
 10
920.6744045374
 20
-921.7774610459
 10
913.3559634692
 20
-924.4311250968
 10
906.0870740312
 20
-926.7746688419
 10
898.8758546465
 20
-928.8054748417
 10
891.7303593278
 20
-930.5212749447
 10
884.6585686828
 20
-931.9201528207
 10
877.6683810001
 20
-933.0005461017
 10
870.7676034285
 20
-933.7612481259
 10
863.9639432569
 20
-934.2014092862
 10
857.2649993066
 20
-934.3205379787
 10
850.678253444
 20
-934.1185011517
 10
844.2110622248
 20
-933.5955244548
 10
837.8706486773
 20
-932.7521919861
 10
831.6640942351
 20
-931.5894456406
 10
825.5983308286
 20
-930.1085840577
 10
819.6801331424
 20
-928.3112611711
 10
813.9161110488
 20
-926.1994843614
 10
808.3127022259
 20
-923.775612214
 10
802.8761649672
 20
-921.0423518852
 10
800.2351777261
 20
-919.5680319737
  0
LWPOLYLINE
  5
E9
330
1F
100
AcDbEntity
  8
0
  6
Continuous
 62
     7
370
    25
100
AcDbPolyline
 90
       86
 70
   128
 43
0.0
 10
992.0454168636
 20
-377.9095935595
 10
993.8066942071
 20
-378.9554201751
 10
998.3520624584
 20
-381.9377482503
 10
1002.7115952143
 20
-385.2208237528
 10
1006.8791220437
 20
-388.7999998565
 10
1010.8487442782
 20
-392.6702106377
 10
1014.6148433616
 20
-396.8259782458
 10
1018.1720888017
 20
-401.2614206567
 10
1021.5154457155
 20
-405.9702599974
 10
1024.640181955
 20
-410.9458314325
 10
1027.5418748055
 20
-416.181092597
 10
1030.2164172453
 20
-421.6686335642
 10
1032.6600237587
 20
-427.4006873335
 10
1034.8692356938
 20
-433.3691408237
 10
1036.8409261582
 20
-439.5655463563
 10
1038.5723044446
 20
-445.9811336122
 10
1040.0609199806
 20
-452.6068220451
 10
1041.3046657974
 20
-459.4332337339
 10
1042.3017815118
 20
-466.4507066562
 10
1043.050855818
 20
-473.6493083638
 10
1043.5508284852
 20
-481.018850041
 10
1043.800991858
 20
-488.5489009256
 10
1043.800991858
 20
-496.2288030727
 10
1043.5508284852
 20
-504.0476864395
 10
1043.050855818
 20
-511.9944842711
 10
1042.3017815118
 20
-520.0579487636
 10
1041.3046657974
 20
-528.2266669848
 10
1040.0609199806
 20
-536.4890770275
 10
1038.5723044446
 20
-544.8334843743
 10
1036.8409261582
 20
-553.2480784496
 10
1034.8692356938
 20
-561.7209493366
 10
1032.6600237587
 20
-570.2401046338
 10
1030.2164172453
 20
-578.7934864297
 10
1027.5418748055
 20
-587.3689883688
 10
1024.640181955
 20
-595.9544727871
 10
1021.5154457155
 20
-604.5377878913
 10
1018.1720888017
 20
-613.1067849589
 10
1014.6148433616
 20
-621.6493355326
 10
1010.8487442782
 20
-630.1533485875
 10
1006.8791220437
 20
-638.6067876439
 10
1002.7115952143
 20
-646.9976878043
 10
998.3520624584
 20
-655.3141726876
 10
993.8066942071
 20
-663.5444712397
 10
989.0819239207
 20
-671.6769343931
 10
984.1844389833
 20
-679.7000515558
 10
979.1211712372
 20
-687.6024669025
 10
973.8992871717
 20
-695.372995448
 10
968.5261777798
 20
-703.0006388781
 10
963.0094480968
 20
-710.4746011165
 10
957.3569064369
 20
-717.7843036054
 10
951.5765533406
 20
-724.9194002783
 10
945.6765702513
 20
-731.8697922037
 10
939.6653079355
 20
-738.6256418792
 10
933.5512746625
 20
-745.1773871549
 10
927.3431241629
 20
-751.5157547681
 10
921.0496433795
 20
-757.6317734681
 10
914.6797400306
 20
-763.5167867146
 10
908.242430002
 20
-769.1624649292
 10
901.7468245862
 20
-774.5608172857
 10
895.2021175864
 20
-779.7042030202
 10
888.6175723034
 20
-784.5853422452
 10
882.0025084247
 20
-789.1973262541
 10
875.3662888337
 20
-793.533627299
 10
868.7183063569
 20
-797.588107831
 10
862.0679704702
 20
-801.355029186
 10
855.4246939805
 20
-804.8290597083
 10
848.7978797026
 20
-808.005282296
 10
842.1969071511
 20
-810.8792013613
 10
835.6311192646
 20
-813.4467491931
 10
829.1098091815
 20
-815.7042917146
 10
822.6422070872
 20
-817.6486336267
 10
816.237467149
 20
-819.277022931
 10
809.9046545602
 20
-820.5871548245
 10
803.6527327088
 20
-821.5771749619
 10
797.4905504911
 20
-822.2456820804
 10
791.4268297869
 20
-822.5917299831
 10
785.4701531149
 20
-822.6148288778
 10
779.6289514847
 20
-822.3149460706
 10
773.9114924641
 20
-821.692506012
 10
768.325868477
 20
-820.7483896964
 10
762.8799853494
 20
-819.4839334148
 10
757.5815511201
 20
-817.9009268637
 10
752.4380651302
 20
-816.0016106119
 10
747.4568074088
 20
-813.7886729292
 10
742.6448283693
 20
-811.2652459812
 10
742.0657337046
 20
-810.9340247499
  0
LWPOLYLINE
  5
EA
330
1F
100
AcDbEntity
  8
0
  6
Continuous
 62
     7
370
    25
100
AcDbPolyline
 90
      124
 70
   128
 43
0.0
 10
911.842109225
 20
-351.8483128896
 10
913.7878688357
 20
-351.1784168316
 10
920.6435278491
 20
-349.0065486206
 10
927.4399820198
 20
-347.1487019866
 10
934.1686678736
 20
-345.6072178006
 10
940.8211073239
 20
-344.3840383195
 10
947.3889183539
 20
-343.480704739
 10
953.8638255777
 20
-342.8983552515
 10
960.2376706677
 20
-342.6377236126
 10
966.5024226335
 20
-342.6991382159
 10
972.6501879413
 20
-343.0825216794
 10
978.6732204593
 20
-343.7873909433
 10
984.563931218
 20
-344.8128578784
 10
990.3148979722
 20
-346.1576304051
 10
995.918874553
 20
-347.8200141214
 10
1001.3687999979
 20
-349.7979144382
 10
1006.6578074473
 20
-352.0888392179
 10
1011.7792327971
 20
-354.6899019149
 10
1016.7266230951
 20
-357.5978252124
 10
1021.493744672
 20
-360.808945152
 10
1026.0745909951
 20
-364.31921575
 10
1030.4633902374
 20
-368.1242140954
 10
1034.6546125493
 20
-372.2191459229
 10
1038.6429770265
 20
-376.5988516533
 10
1042.4234583639
 20
-381.2578128949
 10
1045.9912931874
 20
-386.1901593964
 10
1049.3419860555
 20
-391.3896764433
 10
1052.4713151239
 20
-396.8498126886
 10
1055.3753374647
 20
-402.5636884074
 10
1058.0503940346
 20
-408.5241041651
 10
1060.4931142853
 20
-414.7235498887
 10
1062.70042041
 20
-421.1542143297
 10
1064.6695312219
 20
-427.8079949059
 10
1066.3979656582
 20
-434.6765079106
 10
1067.8835459064
 20
-441.7510990762
 10
1069.124400148
 20
-449.0228544783
 10
1070.1189649173
 20
-456.4826117672
 10
1070.8659870711
 20
-464.1209717126
 10
1071.364525368
 20
-471.9283100462
 10
1071.6139516539
 20
-479.8947895885
 10
1071.6139516539
 20
-488.0103726434
 10
1071.364525368
 20
-496.2648336455
 10
1070.8659870711
 20
-504.6477720447
 10
1070.1189649173
 20
-513.1486254103
 10
1069.124400148
 20
-521.7566827395
 10
1067.8835459064
 20
-530.4610979539
 10
1066.3979656582
 20
-539.2509035647
 10
1064.6695312219
 20
-548.1150244919
 10
1062.70042041
 20
-557.042292019
 10
1060.4931142853
 20
-566.0214578652
 10
1058.0503940346
 20
-575.0412083584
 10
1055.3753374647
 20
-584.0901786899
 10
1052.4713151239
 20
-593.1569672347
 10
1049.3419860555
 20
-602.2301499165
 10
1045.9912931874
 20
-611.2982946029
 10
1042.4234583639
 20
-620.349975509
 10
1038.6429770265
 20
-629.3737875944
 10
1034.6546125493
 20
-638.3583609329
 10
1030.4633902374
 20
-647.2923750389
 10
1026.0745909951
 20
-656.164573131
 10
1021.493744672
 20
-664.9637763156
 10
1016.7266230951
 20
-673.6788976718
 10
1011.7792327971
 20
-682.2989562212
 10
1006.6578074473
 20
-690.8130907639
 10
1001.3687999979
 20
-699.2105735629
 10
995.918874553
 20
-707.4808238619
 10
990.3148979722
 20
-715.6134212161
 10
984.563931218
 20
-723.5981186224
 10
978.6732204593
 20
-731.4248554304
 10
972.6501879413
 20
-739.0837700185
 10
966.5024226335
 20
-746.56521222
 10
960.2376706677
 20
-753.8597554815
 10
953.8638255777
 20
-760.958208741
 10
947.3889183539
 20
-767.851628008
 10
940.8211073239
 20
-774.5313276332
 10
934.1686678736
 20
-780.9888912522
 10
927.4399820198
 20
-787.21618239
 10
920.6435278491
 20
-793.205354713
 10
913.7878688357
 20
-798.9488619153
 10
906.8816430512
 20
-804.439467227
 10
899.9335522813
 20
-809.6702525323
 10
892.9523510607
 20
-814.6346270865
 10
885.9468356434
 20
-819.32633582
 10
878.9258329188
 20
-823.7394672199
 10
871.8981892905
 20
-827.8684607785
 10
864.8727595292
 20
-831.7081139991
 10
857.8583956165
 20
-835.2535889515
 10
850.8639355908
 20
-838.5004183676
 10
843.898192412
 20
-841.4445112701
 10
836.9699428569
 20
-844.0821581271
 10
830.0879164608
 20
-846.4100355261
 10
823.2607845181
 20
-848.4252103615
 10
816.4971491566
 20
-850.1251435302
 10
809.8055324991
 20
-851.507693131
 10
803.1943659253
 20
-852.5711171632
 10
796.6719794486
 20
-853.3140757215
 10
790.2465912202
 20
-853.7356326847
 10
783.9262971743
 20
-853.8352568945
 10
777.7190608274
 20
-853.6128228252
 10
771.6327032442
 20
-853.0686107419
 10
765.6748931833
 20
-852.2033063471
 10
759.8531374343
 20
-851.0179999171
 10
754.1747713597
 20
-849.5141849277
 10
748.6469496523
 20
-847.6937561729
 10
743.2766373201
 20
-845.5590073776
 10
738.0706009107
 20
-843.1126283068
 10
733.0353999856
 20
-840.3577013773
 10
728.1773788547
 20
-837.2976977735
 10
723.5026585833
 20
-833.9364730737
 10
719.0171292789
 20
-830.2782623924
 10
714.72644267
 20
-826.3276750436
 10
710.6360049852
 20
-822.0896887338
 10
706.7509701408
 20
-817.5696432894
 10
703.0762332477
 20
-812.773233929
 10
699.6164244428
 20
-807.7065040874
 10
696.3759030557
 20
-802.3758378009
 10
693.3587521156
 20
-796.7879516634
 10
690.5687732069
 20
-790.9498863637
 10
688.0094816792
 20
-784.8689978142
 10
685.6841022179
 20
-778.5529478824
 10
683.5955647813
 20
-772.0096947373
 10
681.7465009086
 20
-765.2474828218
 10
680.1392404046
 20
-758.2748324652
 10
679.3890539946
 20
-754.5124444205
  0
LWPOLYLINE
  5
EB
330
1F
100
AcDbEntity
  8
0
  6
Continuous
 62
     7
370
    25
100
AcDbPolyline
 90
       82
 70
   128
 43
0.0
 10
948.5908691737
 20
-381.6905486714
 10
950.2547173286
 20
-382.679906773
 10
954.5437430644
 20
-385.5116365392
 10
958.6478329737
 20
-388.6416524411
 10
962.5605790076
 20
-392.0650673303
 10
966.2758718774
 20
-395.776535951
 10
969.7879105945
 20
-399.7702632855
 10
973.0912115272
 20
-404.0400136026
 10
976.1806169633
 20
-408.579120194
 10
979.051303163
 20
-413.3804957836
 10
981.6987878904
 20
-418.4366435935
 10
984.1189374126
 20
-423.739669049
 10
986.3079729532
 20
-429.2812921053
 10
988.2624765931
 20
-435.0528601759
 10
989.979396607
 20
-441.0453616423
 10
991.456052228
 20
-447.249439925
 10
992.6901378337
 20
-453.655408092
 10
993.6797265459
 20
-460.2532639846
 10
994.4232732392
 20
-467.032705834
 10
994.9196169538
 20
-473.9831483465
 10
995.167982708
 20
-481.0937392312
 10
995.167982708
 20
-488.3533761445
 10
994.9196169538
 20
-495.7507240251
 10
994.4232732392
 20
-503.2742327925
 10
993.6797265459
 20
-510.9121553808
 10
992.6901378337
 20
-518.6525660805
 10
991.456052228
 20
-526.4833791592
 10
989.979396607
 20
-534.3923677318
 10
988.2624765931
 20
-542.3671828515
 10
986.3079729532
 20
-550.3953727913
 10
984.1189374126
 20
-558.4644024854
 10
981.6987878904
 20
-566.5616731019
 10
979.051303163
 20
-574.674541714
 10
976.1806169633
 20
-582.7903410403
 10
973.0912115272
 20
-590.8963992235
 10
969.7879105945
 20
-598.9800596162
 10
966.2758718774
 20
-607.0287005421
 10
962.5605790076
 20
-615.0297550039
 10
958.6478329737
 20
-622.9707303049
 10
954.5437430644
 20
-630.8392275547
 10
950.2547173286
 20
-638.622961029
 10
945.7874525712
 20
-646.3097773518
 10
941.1489238955
 20
-653.8876744721
 10
936.3463738136
 20
-661.344820403
 10
931.3873009373
 20
-668.6695716963
 10
926.2794482702
 20
-675.8504916224
 10
921.030791118
 20
-682.8763680273
 10
915.6495246356
 20
-689.736230839
 10
910.144051032
 20
-696.419369196
 10
904.5229664506
 20
-702.915348171
 10
898.7950475478
 20
-709.2140250642
 10
892.9692377889
 20
-715.3055652391
 10
887.0546334843
 20
-721.1804574789
 10
881.0604695865
 20
-726.8295288368
 10
874.996105271
 20
-732.2439589585
 10
868.8710093227
 20
-737.4152938539
 10
862.6947453518
 20
-742.3354590976
 10
856.4769568614
 20
-746.9967724356
 10
850.2273521901
 20
-751.3919557805
 10
843.9556893538
 20
-755.5141465751
 10
837.6717608094
 20
-759.356908508
 10
831.3853781654
 20
-762.9142415624
 10
825.106356862
 20
-766.1805913852
 10
818.8445008458
 20
-769.1508579588
 10
812.6095872615
 20
-771.8204035645
 10
806.4113511866
 20
-774.1850600238
 10
800.2594704309
 20
-776.2411352063
 10
794.1635504259
 20
-777.9854187947
 10
788.1331092271
 20
-779.4151872973
 10
782.1775626526
 20
-780.5282083002
 10
776.3062095814
 20
-781.3227439532
 10
770.5282174344
 20
-781.7975536833
 10
764.8526078603
 20
-781.9518961315
 10
759.2882426498
 20
-781.7855303102
 10
753.8438098987
 20
-781.2987159801
 10
748.5278104423
 20
-780.4922132438
 10
743.3485445829
 20
-779.3672813597
 10
738.3140991292
 20
-777.9256767754
 10
733.4323347702
 20
-776.1696503853
 10
728.7108738013
 20
-774.1019440161
 10
724.1570882236
 20
-771.725786146
 10
723.6091543306
 20
-771.4125367427
  0
LWPOLYLINE
  5
EC
330
1F
100
AcDbEntity
  8
0
  6
Continuous
 62
     7
370
    25
100
AcDbPolyline
 90
      114
 70
   128
 43
0.0
 10
885.863180999
 20
-356.5413295909
 10
889.2238959079
 20
-355.6457953691
 10
895.5937992568
 20
-354.1762747545
 10
901.8872800402
 20
-353.0259952095
 10
908.0954305398
 20
-352.1965848264
 10
914.2094638127
 20
-351.6892175426
 10
920.2207261286
 20
-351.5046114799
 10
926.1207092179
 20
-351.6430279274
 10
931.9010623142
 20
-352.1042709723
 10
937.5536039741
 20
-352.8876877765
 10
943.070333657
 20
-353.9921695012
 10
948.443443049
 20
-355.416152876
 10
953.6653271145
 20
-357.1576224116
 10
958.7285948606
 20
-359.2141132527
 10
963.626079798
 20
-361.5827146664
 10
968.3508500843
 20
-364.2600741623
 10
972.8962183357
 20
-367.2424022375
 10
977.2557510916
 20
-370.52547774
 10
981.423277921
 20
-374.1046538437
 10
985.3929001555
 20
-377.9748646248
 10
989.1589992389
 20
-382.130632233
 10
992.716244679
 20
-386.5660746439
 10
996.0596015928
 20
-391.2749139846
 10
999.1843378323
 20
-396.2504854197
 10
1002.0860306828
 20
-401.4857465842
 10
1004.7605731226
 20
-406.9732875514
 10
1007.2041796359
 20
-412.7053413207
 10
1009.4133915711
 20
-418.6737948108
 10
1011.3850820355
 20
-424.8702003435
 10
1013.1164603219
 20
-431.2857875994
 10
1014.6050758579
 20
-437.9114760323
 10
1015.8488216747
 20
-444.7378877211
 10
1016.8459373891
 20
-451.7553606434
 10
1017.5950116953
 20
-458.953962351
 10
1018.0949843625
 20
-466.3235040282
 10
1018.3451477353
 20
-473.8535549128
 10
1018.3451477353
 20
-481.5334570599
 10
1018.0949843625
 20
-489.3523404267
 10
1017.5950116953
 20
-497.2991382582
 10
1016.8459373891
 20
-505.3626027508
 10
1015.8488216747
 20
-513.531320972
 10
1014.6050758579
 20
-521.7937310147
 10
1013.1164603219
 20
-530.1381383615
 10
1011.3850820355
 20
-538.5527324368
 10
1009.4133915711
 20
-547.0256033238
 10
1007.2041796359
 20
-555.544758621
 10
1004.7605731226
 20
-564.0981404169
 10
1002.0860306828
 20
-572.673642356
 10
999.1843378323
 20
-581.2591267743
 10
996.0596015928
 20
-589.8424418785
 10
992.716244679
 20
-598.4114389461
 10
989.1589992389
 20
-606.9539895198
 10
985.3929001555
 20
-615.4580025747
 10
981.423277921
 20
-623.9114416311
 10
977.2557510916
 20
-632.3023417915
 10
972.8962183357
 20
-640.6188266748
 10
968.3508500843
 20
-648.8491252269
 10
963.626079798
 20
-656.9815883803
 10
958.7285948606
 20
-665.004705543
 10
953.6653271145
 20
-672.9071208897
 10
948.443443049
 20
-680.6776494352
 10
943.070333657
 20
-688.3052928653
 10
937.5536039741
 20
-695.7792551037
 10
931.9010623142
 20
-703.0889575926
 10
926.1207092179
 20
-710.2240542655
 10
920.2207261286
 20
-717.1744461909
 10
914.2094638127
 20
-723.9302958664
 10
908.0954305398
 20
-730.4820411421
 10
901.8872800402
 20
-736.8204087553
 10
895.5937992568
 20
-742.9364274553
 10
889.2238959079
 20
-748.8214407017
 10
882.7865858793
 20
-754.4671189163
 10
876.2909804635
 20
-759.8654712729
 10
869.7462734636
 20
-765.0088570074
 10
863.1617281806
 20
-769.8899962324
 10
856.546664302
 20
-774.5019802412
 10
849.9104447109
 20
-778.8382812862
 10
843.2624622342
 20
-782.8927618182
 10
836.6121263475
 20
-786.6596831732
 10
829.9688498578
 20
-790.1337136955
 10
823.3420355798
 20
-793.3099362832
 10
816.7410630284
 20
-796.1838553485
 10
810.1752751419
 20
-798.7514031803
 10
803.6539650588
 20
-801.0089457018
 10
797.1863629644
 20
-802.9532876139
 10
790.7816230263
 20
-804.5816769182
 10
784.4488104374
 20
-805.8918088116
 10
778.1968885861
 20
-806.8818289491
 10
772.0347063684
 20
-807.5503360676
 10
765.9709856642
 20
-807.8963839703
 10
760.0143089922
 20
-807.919482865
 10
754.173107362
 20
-807.6196000577
 10
748.4556483414
 20
-806.9971599992
 10
742.8700243543
 20
-806.0530436836
 10
737.4241412267
 20
-804.788587402
 10
732.1257069974
 20
-803.2055808509
 10
726.9822210074
 20
-801.3062645991
 10
722.0009632861
 20
-799.0933269164
 10
717.1889842466
 20
-796.5698999684
 10
712.5530947073
 20
-793.739555384
 10
708.0998562513
 20
-790.6062991994
 10
703.8355719397
 20
-787.1745661883
 10
699.7662773902
 20
-783.4492135851
 10
695.897732234
 20
-779.4355142098
 10
692.2354119643
 20
-775.1391490049
 10
688.7845001859
 20
-770.5661989951
 10
685.5498812785
 20
-765.7231366798
 10
682.5361334834
 20
-760.6168168719
 10
679.7475224237
 20
-755.2544669963
 10
677.1879950664
 20
-749.6436768595
 10
674.8611741364
 20
-743.7923879075
 10
672.7703529885
 20
-737.7088819856
 10
670.9184909461
 20
-731.4017696161
 10
670.4615302021
 20
-729.6683618964
  0
LWPOLYLINE
  5
ED
330
1F
100
AcDbEntity
  8
0
  6
Continuous
 62
     7
370
    25
100
AcDbPolyline
 90
      160
 70
   128
 43
0.0
 10
651.5451418625
 20
-653.7021092743
 10
651.6693489837
 20
-646.3721861371
 10
652.0417764129
 20
-638.910301315
 10
652.6618426487
 20
-631.3281056554
 10
653.5285795313
 20
-623.6374378568
 10
654.640633754
 20
-615.850305984
 10
655.9962689761
 20
-607.9788687191
 10
657.5933685341
 20
-600.0354163768
 10
659.4294387467
 20
-592.0323517152
 10
661.5016128082
 20
-583.9821705696
 10
663.8066552647
 20
-575.8974423424
 10
666.3409670662
 20
-567.7907903768
 10
669.1005911855
 20
-559.6748722477
 10
672.0812187972
 20
-551.5623599978
 10
675.2781960051
 20
-543.4659203519
 10
678.6865311087
 20
-535.3981949395
 10
682.3009023975
 20
-527.3717805561
 10
686.1156664597
 20
-519.3992094949
 10
690.124866994
 20
-511.4929299793
 10
694.3222441098
 20
-503.6652867261
 10
698.7012441009
 20
-495.9285016713
 10
703.2550296786
 20
-488.2946548861
 10
707.9764906474
 20
-480.7756657161
 10
712.8582550065
 20
-473.3832741705
 10
717.8927004602
 20
-466.129022591
 10
723.0719663196
 20
-459.0242376303
 10
728.387965776
 20
-452.0800125669
 10
733.8323985271
 20
-445.3071899837
 10
739.3967637376
 20
-438.7163448393
 10
745.0723733116
 20
-432.3177679561
 10
750.8503654587
 20
-426.1214499521
 10
756.7217185299
 20
-420.1370656425
 10
762.6772651044
 20
-414.373958933
 10
768.7077063032
 20
-408.8411282305
 10
774.8036263082
 20
-403.5472123935
 10
780.9555070639
 20
-398.500477243
 10
787.1537431388
 20
-393.708802657
 10
793.3886567231
 20
-389.1796702665
 10
799.6505127393
 20
-384.920151774
 10
805.9295340426
 20
-380.9368979122
 10
812.2159166866
 20
-377.2361280589
 10
818.4998452311
 20
-373.8236205271
 10
824.7715080674
 20
-370.7047035422
 10
831.0211127387
 20
-367.8842469228
 10
837.2389012291
 20
-365.3666544771
 10
843.4151652
 20
-363.1558571269
 10
849.5402611483
 20
-361.2553067697
 10
855.6046254638
 20
-359.6679708894
 10
861.5987893616
 20
-358.3963279225
 10
867.5133936661
 20
-357.4423633886
 10
873.339203425
 20
-356.80756679
 10
879.0671223279
 20
-356.4929292862
 10
884.6882069093
 20
-356.4989421464
 10
890.1936805129
 20
-356.8255959822
 10
895.5749469953
 20
-357.4723807625
 10
900.8236041475
 20
-358.4382866095
 10
905.9314568146
 20
-359.7218053759
 10
910.8905296909
 20
-361.3209329996
 10
915.6930797728
 20
-363.2331726325
 10
920.3316084484
 20
-365.4555385396
 10
924.7988732059
 20
-367.9845607602
 10
929.0878989416
 20
-370.8162905264
 10
933.191988851
 20
-373.9463064283
 10
937.1047348849
 20
-377.3697213175
 10
940.8200277547
 20
-381.0811899382
 10
944.3320664718
 20
-385.0749172727
 10
947.6353674045
 20
-389.3446675898
 10
950.7247728406
 20
-393.8837741812
 10
953.5954590403
 20
-398.6851497708
 10
956.2429437677
 20
-403.7412975807
 10
958.6630932898
 20
-409.0443230361
 10
960.8521288305
 20
-414.5859460925
 10
962.8066324704
 20
-420.357514163
 10
964.5235524843
 20
-426.3500156295
 10
966.0002081053
 20
-432.5540939122
 10
967.234293711
 20
-438.9600620792
 10
968.2238824231
 20
-445.5579179718
 10
968.9674291165
 20
-452.3373598212
 10
969.4637728311
 20
-459.2878023337
 10
969.7121385853
 20
-466.3983932184
 10
969.7121385853
 20
-473.6580301317
 10
969.4637728311
 20
-481.0553780123
 10
968.9674291165
 20
-488.5788867797
 10
968.2238824231
 20
-496.216809368
 10
967.234293711
 20
-503.9572200677
 10
966.0002081053
 20
-511.7880331464
 10
964.5235524843
 20
-519.697021719
 10
962.8066324704
 20
-527.6718368387
 10
960.8521288305
 20
-535.7000267785
 10
958.6630932898
 20
-543.7690564726
 10
956.2429437677
 20
-551.8663270891
 10
953.5954590403
 20
-559.9791957012
 10
950.7247728406
 20
-568.0949950274
 10
947.6353674045
 20
-576.2010532107
 10
944.3320664718
 20
-584.2847136034
 10
940.8200277547
 20
-592.3333545293
 10
937.1047348849
 20
-600.3344089911
 10
933.191988851
 20
-608.2753842921
 10
929.0878989416
 20
-616.1438815419
 10
924.7988732059
 20
-623.9276150162
 10
920.3316084484
 20
-631.614431339
 10
915.6930797728
 20
-639.1923284593
 10
910.8905296909
 20
-646.6494743902
 10
905.9314568146
 20
-653.9742256835
 10
900.8236041475
 20
-661.1551456096
 10
895.5749469953
 20
-668.1810220145
 10
890.1936805129
 20
-675.0408848262
 10
884.6882069093
 20
-681.7240231831
 10
879.0671223279
 20
-688.2200021582
 10
873.339203425
 20
-694.5186790514
 10
867.5133936661
 20
-700.6102192263
 10
861.5987893615
 20
-706.4851114661
 10
855.6046254638
 20
-712.134182824
 10
849.5402611483
 20
-717.5486129456
 10
843.4151652
 20
-722.7199478411
 10
837.2389012291
 20
-727.6401130848
 10
831.0211127387
 20
-732.3014264228
 10
824.7715080674
 20
-736.6966097677
 10
818.4998452311
 20
-740.8188005623
 10
812.2159166866
 20
-744.6615624952
 10
805.9295340426
 20
-748.2188955496
 10
799.6505127393
 20
-751.4852453724
 10
793.3886567231
 20
-754.4555119459
 10
787.1537431388
 20
-757.1250575517
 10
780.9555070639
 20
-759.489714011
 10
774.8036263081
 20
-761.5457891935
 10
768.7077063032
 20
-763.2900727819
 10
762.6772651044
 20
-764.7198412845
 10
756.7217185299
 20
-765.8328622874
 10
750.8503654587
 20
-766.6273979404
 10
745.0723733116
 20
-767.1022076705
 10
739.3967637376
 20
-767.2565501187
 10
733.8323985271
 20
-767.0901842974
 10
728.387965776
 20
-766.6033699673
 10
723.0719663196
 20
-765.796867231
 10
717.8927004602
 20
-764.6719353469
 10
712.8582550065
 20
-763.2303307626
 10
707.9764906474
 20
-761.4743043725
 10
703.2550296786
 20
-759.4065980033
 10
698.7012441009
 20
-757.0304401332
 10
694.3222441098
 20
-754.3495408505
 10
690.124866994
 20
-751.3680860612
 10
686.1156664597
 20
-748.0907309531
 10
682.3009023975
 20
-744.5225927271
 10
678.6865311087
 20
-740.6692426075
 10
675.2781960051
 20
-736.5366971431
 10
672.0812187972
 20
-732.1314088131
 10
669.1005911855
 20
-727.4602559522
 10
666.3409670662
 20
-722.5305320112
 10
663.8066552647
 20
-717.3499341688
 10
661.5016128082
 20
-711.9265513135
 10
659.4294387467
 20
-706.268851414
 10
657.5933685341
 20
-700.3856682968
 10
655.9962689761
 20
-694.2861878543
 10
654.640633754
 20
-687.9799337009
 10
653.5285795313
 20
-681.4767523039
 10
652.6618426487
 20
-674.7867976092
 10
652.0417764129
 20
-667.9205151869
 10
651.6693489837
 20
-660.8886259218
 10
651.5451418625
 20
-653.7021092743
  0
LWPOLYLINE
  5
EE
330
1F
100
AcDbEntity
  8
0
  6
Continuous
 62
     7
370
    25
100
AcDbPolyline
 90
      150
 70
   128
 43
0.0
 10
670.4248929202
 20
-642.8030609815
 10
670.5495452969
 20
-635.905113168
 10
670.9232807996
 20
-628.8755090832
 10
671.5454349403
 20
-621.7267471068
 10
672.4149015516
 20
-614.4715374767
 10
673.5301347535
 20
-607.1227796906
 10
674.8891517022
 20
-599.693539572
 10
676.4895361152
 20
-592.1970260385
 10
678.3284425672
 20
-584.6465676177
 10
680.4026015498
 20
-577.055588749
 10
682.708325284
 20
-569.4375859159
 10
685.2415142771
 20
-561.8061036495
 10
687.9976646116
 20
-554.1747104467
 10
690.9718759527
 20
-546.5569746461
 10
694.1588602612
 20
-538.966440304
 10
697.5529511953
 20
-531.4166031134
 10
701.1481141851
 20
-523.9208864094
 10
704.9379571622
 20
-516.4926173027
 10
708.9157419239
 20
-509.1450029848
 10
713.0743961142
 20
-501.8911072456
 10
717.4065257976
 20
-494.7438272472
 10
721.9044286056
 20
-487.7158705925
 10
726.5601074313
 20
-480.819732732
 10
731.3652846475
 20
-474.0676747472
 10
736.3114168245
 20
-467.4717015507
 10
741.3897099198
 20
-461.0435405423
 10
746.5911349137
 20
-454.7946207575
 10
751.9064438622
 20
-448.7360525477
 10
757.32618634
 20
-442.8786078261
 10
762.8407262429
 20
-437.2327009157
 10
768.4402589201
 20
-431.8083700329
 10
774.1148286067
 20
-426.61525944
 10
779.8543461251
 20
-421.6626022983
 10
785.6486068226
 20
-416.9592042513
 10
791.487308715
 20
-412.5134277691
 10
797.3600708034
 20
-408.3331772801
 10
803.2564515312
 20
-404.4258851172
 10
809.1659673487
 20
-400.7984983031
 10
815.0781113522
 20
-397.4574661992
 10
820.9823719657
 20
-394.4087290388
 10
826.8682516291
 20
-391.6577073652
 10
832.7252854633
 20
-389.2092923946
 10
838.5430598757
 20
-387.0678373194
 10
844.3112310759
 20
-385.2371495686
 10
850.0195434658
 20
-383.7204840383
 10
855.6578478744
 20
-382.5205373043
 10
861.2161196023
 20
-381.6394428283
 10
866.684476245
 20
-381.078767164
 10
872.0531952642
 20
-380.8395071722
 10
877.3127312731
 20
-380.9220882486
 10
882.4537330089
 20
-381.326363567
 10
887.467059958
 20
-382.0516143406
 10
892.343798608
 20
-383.0965511001
 10
897.0752782955
 20
-384.4593159859
 10
901.6530866225
 20
-386.1374860518
 10
906.0690844127
 20
-388.1280775728
 10
910.3154201831
 20
-390.4275513497
 10
914.3845441039
 20
-393.0318190021
 10
918.269221421
 20
-395.9362502372
 10
921.9625453201
 20
-399.1356810821
 10
925.457949206
 20
-402.6244230656
 10
928.7492183782
 20
-406.3962733317
 10
931.8305010801
 20
-410.4445256684
 10
934.6963189036
 20
-414.7619824308
 10
937.3415765292
 20
-419.3409673382
 10
939.7615707853
 20
-424.1733391225
 10
941.9519990105
 20
-429.2505060032
 10
943.9089667033
 20
-434.5634409627
 10
945.6289944466
 20
-440.1026977966
 10
947.1090240938
 20
-445.8584279085
 10
948.3464242062
 20
-451.8203978201
 10
949.3389947317
 20
-457.9780073665
 10
950.0849709159
 20
-464.3203085428
 10
950.5830264405
 20
-470.8360249688
 10
950.8322757809
 20
-477.5135719386
 10
950.8322757809
 20
-484.3410770172
 10
950.5830264405
 20
-491.3064011499
 10
950.0849709159
 20
-498.3971602445
 10
949.3389947317
 20
-505.6007471901
 10
948.3464242062
 20
-512.9043542719
 10
947.1090240938
 20
-520.2949959432
 10
945.6289944466
 20
-527.7595319128
 10
943.9089667033
 20
-535.284690508
 10
941.9519990105
 20
-542.8570922715
 10
939.7615707853
 20
-550.4632737494
 10
937.3415765292
 20
-558.0897114285
 10
934.6963189036
 20
-565.722845781
 10
931.8305010801
 20
-573.3491053725
 10
928.7492183782
 20
-580.9549309918
 10
925.457949206
 20
-588.5267997584
 10
921.9625453201
 20
-596.0512491661
 10
918.269221421
 20
-603.5149010184
 10
914.3845441039
 20
-610.9044852147
 10
910.3154201831
 20
-618.2068633439
 10
906.0690844127
 20
-625.4090520442
 10
901.6530866225
 20
-632.4982460869
 10
897.0752782955
 20
-639.4618411437
 10
892.343798608
 20
-646.2874561968
 10
887.467059958
 20
-652.9629555516
 10
882.4537330089
 20
-659.4764704139
 10
877.3127312731
 20
-665.816419992
 10
872.0531952641
 20
-671.9715320869
 10
866.684476245
 20
-677.930863134
 10
861.2161196023
 20
-683.68381766
 10
855.6578478744
 20
-689.2201671218
 10
850.0195434658
 20
-694.530068092
 10
844.3112310759
 20
-699.6040797606
 10
838.5430598757
 20
-704.4331807199
 10
832.7252854633
 20
-709.0087850047
 10
826.8682516291
 20
-713.3227573575
 10
820.9823719657
 20
-717.367427693
 10
815.0781113522
 20
-721.1356047347
 10
809.1659673487
 20
-724.6205888016
 10
803.2564515312
 20
-727.8161837191
 10
797.3600708034
 20
-730.716707836
 10
791.487308715
 20
-733.3170041263
 10
785.6486068226
 20
-735.6124493582
 10
779.8543461251
 20
-737.5989623136
 10
774.1148286067
 20
-739.2730110452
 10
768.4402589201
 20
-740.6316191554
 10
762.8407262429
 20
-741.6723710885
 10
757.32618634
 20
-742.3934164255
 10
751.9064438622
 20
-742.7934731742
 10
746.5911349137
 20
-742.8718300483
 10
741.3897099198
 20
-742.628347732
 10
736.3114168245
 20
-742.0634591282
 10
731.3652846475
 20
-741.178168588
 10
726.5601074313
 20
-739.9740501258
 10
721.9044286056
 20
-738.4532446203
 10
717.4065257976
 20
-736.6184560081
 10
713.0743961142
 20
-734.4729464764
 10
708.9157419239
 20
-732.0205306629
 10
704.9379571622
 20
-729.2655688735
 10
701.1481141851
 20
-726.2129593296
 10
697.5529511953
 20
-722.8681294595
 10
694.1588602612
 20
-719.2370262489
 10
690.9718759527
 20
-715.3261056666
 10
687.9976646116
 20
-711.1423211867
 10
685.2415142771
 20
-706.6931114254
 10
682.708325284
 20
-701.9863869152
 10
680.4026015498
 20
-697.0305160406
 10
678.3284425672
 20
-691.834310159
 10
676.4895361152
 20
-686.4070079351
 10
674.8891517022
 20
-680.758258914
 10
673.5301347535
 20
-674.8981063653
 10
672.4149015516
 20
-668.8369694265
 10
671.5454349403
 20
-662.5856245779
 10
670.9232807996
 20
-656.1551864824
 10
670.5495452969
 20
-649.5570882242
 10
670.4248929202
 20
-642.8030609815
  0
LWPOLYLINE
  5
EF
330
1F
100
AcDbEntity
  8
0
  6
Continuous
 62
     7
370
    25
100
AcDbPolyline
 90
       41
 70
   128
 43
0.0
 10
762.0445738122
 20
-741.7954283579
 10
762.5542344105
 20
-735.2007094083
 10
763.4275137642
 20
-726.6679275278
 10
764.5483925229
 20
-718.0333184496
 10
765.9154422964
 20
-709.3078856763
 10
767.5269209866
 20
-700.5027484518
 10
769.3807750076
 20
-691.6291275912
 10
771.474641903
 20
-682.6983311814
 10
773.8058533564
 20
-673.7217401712
 10
776.3714385914
 20
-664.7107938676
 10
779.1681281579
 20
-655.676975358
 10
782.1923580983
 20
-646.6317968774
 10
785.440274489
 20
-637.5867851369
 10
788.907738352
 20
-628.5534666354
 10
792.5903309295
 20
-619.5433529704
 10
796.4833593143
 20
-610.5679261686
 10
800.5818624308
 20
-601.6386240531
 10
804.8806173571
 20
-592.7668256685
 10
809.3741459803
 20
-583.9638367794
 10
814.0567219782
 20
-575.240875463
 10
818.9223781162
 20
-566.6090578138
 10
823.9649138519
 20
-558.079383777
 10
829.1779032364
 20
-549.6627231317
 10
834.5547031035
 20
-541.3698016383
 10
840.0884615355
 20
-533.2111873704
 10
845.7721265945
 20
-525.1972772474
 10
851.5984553094
 20
-517.3382837851
 10
857.5600229059
 20
-509.6442220814
 10
863.6492322681
 20
-502.1248970539
 10
869.8583236202
 20
-494.7898909444
 10
876.1793844146
 20
-487.6485511085
 10
882.604359416
 20
-480.709978103
 10
889.1250609657
 20
-473.9830140895
 10
895.7331794164
 20
-467.4762315656
 10
902.4202937211
 20
-461.1979224412
 10
909.1778821643
 20
-455.1560874712
 10
915.9973332221
 20
-449.35842606
 10
922.8699565361
 20
-443.8123264498
 10
929.7869939877
 20
-438.5248563055
 10
936.7396308594
 20
-433.5027537077
 10
942.1639238059
 20
-429.7857558446
  0
LWPOLYLINE
  5
F0
330
1F
100
AcDbEntity
  8
0
  6
Continuous
 62
     7
370
    25
100
AcDbPolyline
 90
       53
 70
   128
 43
0.0
 10
709.6259241025
 20
-665.4333345841
 10
709.7505764793
 20
-658.5353867706
 10
710.124311982
 20
-651.5057826859
 10
710.7464661227
 20
-644.3570207095
 10
711.615932734
 20
-637.1018110793
 10
712.7311659359
 20
-629.7530532933
 10
714.0901828846
 20
-622.3238131747
 10
715.6905672976
 20
-614.8272996412
 10
717.5294737496
 20
-607.2768412203
 10
719.6036327322
 20
-599.6858623517
 10
721.9093564664
 20
-592.0678595186
 10
724.4425454595
 20
-584.4363772522
 10
727.198695794
 20
-576.8049840494
 10
730.1729071351
 20
-569.1872482488
 10
733.3598914436
 20
-561.5967139067
 10
736.7539823777
 20
-554.0468767161
 10
740.3491453675
 20
-546.5511600121
 10
744.1389883446
 20
-539.1228909054
 10
748.1167731063
 20
-531.7752765874
 10
752.2754272966
 20
-524.5213808483
 10
756.60755698
 20
-517.3741008498
 10
761.105459788
 20
-510.3461441952
 10
765.7611386137
 20
-503.4500063347
 10
770.5663158299
 20
-496.6979483499
 10
775.5124480069
 20
-490.1019751534
 10
780.5907411022
 20
-483.6738141449
 10
785.7921660961
 20
-477.4248943601
 10
791.1074750446
 20
-471.3663261504
 10
796.5272175224
 20
-465.5088814288
 10
802.0417574253
 20
-459.8629745184
 10
807.6412901024
 20
-454.4386436356
 10
813.3158597891
 20
-449.2455330427
 10
819.0553773075
 20
-444.292875901
 10
824.849638005
 20
-439.589477854
 10
830.6883398974
 20
-435.1437013718
 10
836.5611019858
 20
-430.9634508828
 10
842.4574827136
 20
-427.0561587198
 10
848.366998531
 20
-423.4287719057
 10
854.2791425346
 20
-420.0877398019
 10
860.1834031481
 20
-417.0390026415
 10
866.0692828115
 20
-414.2879809679
 10
871.9263166457
 20
-411.8395659973
 10
877.7440910581
 20
-409.6981109221
 10
883.5122622583
 20
-407.8674231713
 10
889.2205746482
 20
-406.350757641
 10
894.8588790568
 20
-405.150810907
 10
900.4171507847
 20
-404.269716431
 10
905.8855074274
 20
-403.7090407667
 10
911.2542264465
 20
-403.4697807749
 10
916.5137624555
 20
-403.5523618513
 10
921.6547641913
 20
-403.9566371697
 10
926.6680911404
 20
-404.6818879433
 10
927.4789536575
 20
-404.8316668893
  0
LWPOLYLINE
  5
F1
330
1F
100
AcDbEntity
  8
0
  6
Continuous
 62
     7
370
    25
100
AcDbPolyline
 90
       15
 70
   128
 43
0.0
 10
733.0911913325
 20
-741.5576325654
 10
730.1729071351
 20
-737.9563792693
 10
727.198695794
 20
-733.7725947894
 10
724.4425454595
 20
-729.3233850281
 10
721.9093564664
 20
-724.6166605179
 10
719.6036327322
 20
-719.6607896432
 10
717.5294737496
 20
-714.4645837617
 10
715.6905672976
 20
-709.0372815378
 10
714.0901828846
 20
-703.3885325167
 10
712.7311659359
 20
-697.528379968
 10
711.615932734
 20
-691.4672430292
 10
710.7464661227
 20
-685.2158981806
 10
710.124311982
 20
-678.785460085
 10
709.7505764793
 20
-672.1873618269
 10
709.6259241025
 20
-665.4333345841
  0
LWPOLYLINE
  5
F2
330
1F
100
AcDbEntity
  8
0
  6
Continuous
 62
     7
370
    25
100
AcDbPolyline
 90
       46
 70
   128
 43
0.0
 10
741.2360001951
 20
-723.2772365139
 10
741.3609949739
 20
-715.5791781859
 10
741.7358002563
 20
-707.7478313527
 10
742.3598791374
 20
-699.794414343
 10
743.2323376303
 20
-691.7303203503
 10
744.3519259466
 20
-683.5671011114
 10
745.7170402866
 20
-675.3164503592
 10
747.3257251375
 20
-666.9901870715
 10
749.1756760735
 20
-658.6002385402
 10
751.2642430577
 20
-650.1586232859
 10
753.5884342382
 20
-641.677433841
 10
756.1449202334
 20
-633.1688194277
 10
758.9300389017
 20
-624.6449685542
 10
761.9398005875
 20
-616.1180915547
 10
765.1698938362
 20
-607.6004030985
 10
768.6156915703
 20
-599.1041046923
 10
772.2722577177
 20
-590.6413672015
 10
776.1343542827
 20
-582.2243134162
 10
780.1964488491
 20
-573.8650006848
 10
784.4527225056
 20
-565.5754036423
 10
788.8970781811
 20
-557.3673970567
 10
793.5231493791
 20
-549.2527388182
 10
798.324309297
 20
-541.2430530966
 10
803.2936803195
 20
-533.3498136896
 10
808.4241438705
 20
-525.5843275867
 10
813.7083506104
 20
-517.9577187717
 10
819.1387309639
 20
-510.4809122885
 10
824.7075059635
 20
-503.1646185902
 10
830.4066983926
 20
-496.0193181972
 10
836.228144213
 20
-489.0552466833
 10
842.1635042596
 20
-482.282380014
 10
848.2042761864
 20
-475.7104202556
 10
854.3418066456
 20
-469.348781677
 10
860.5673036842
 20
-463.2065772642
 10
866.8718493374
 20
-457.292605666
 10
873.2464124045
 20
-451.6153385896
 10
879.6818613852
 20
-446.1829086655
 10
886.1689775608
 20
-441.0030977972
 10
892.6984681999
 20
-436.0833260138
 10
899.2609798701
 20
-431.4306408412
 10
905.8471118366
 20
-427.0517072058
 10
912.4474295288
 20
-422.9527978881
 10
919.0524780552
 20
-419.1397845361
 10
925.6527957474
 20
-415.6181292547
 10
932.2389277139
 20
-412.3928767811
 10
932.9505209071
 20
-412.0617708166
  0
ARC
  5
F3
330
1F
100
AcDbEntity
  8
0
  6
Continuous
 62
     7
370
    25
100
AcDbCircle
 10
956.0497366325
 20
-723.558942583
 30
0.0
 40
214.8139211515503
100
AcDbArc
 50
179.9248625352
 51
185.1068492525
  0
LWPOLYLINE
  5
F4
330
1F
100
AcDbEntity
  8
0
  6
Continuous
 62
     7
370
    25
100
AcDbPolyline
 90
       48
 70
   128
 43
0.0
 10
726.3290658312
 20
-693.0368315174
 10
726.4537961321
 20
-685.7677405525
 10
726.8277872906
 20
-678.3662798406
 10
727.4504403934
 20
-670.8443021529
 10
728.3207583179
 20
-663.213853258
 10
729.4373473286
 20
-655.4871526309
 10
730.7984193087
 20
-647.6765738853
 10
732.4017946245
 20
-639.7946249582
 10
734.2449056151
 20
-631.8539280793
 10
736.3248007045
 20
-623.8671995579
 10
738.6381491286
 20
-615.8472294191
 10
741.1812462685
 20
-607.806860921
 10
743.9500195839
 20
-599.7589699881
 10
746.940035134
 20
-591.7164445914
 10
750.146504679
 20
-583.6921641095
 10
753.5642933471
 20
-575.6989787031
 10
757.1879278584
 20
-567.7496887374
 10
761.0116052891
 20
-559.8570242827
 10
765.0292023652
 20
-552.0336247289
 10
769.2342852673
 20
-544.2920185441
 10
773.6201199349
 20
-536.6446032119
 10
778.1796828494
 20
-529.1036253778
 10
782.9056722826
 20
-521.6811612371
 10
787.7905199887
 20
-514.3890971962
 10
792.8264033252
 20
-507.2391108375
 10
798.0052577794
 20
-500.2426522189
 10
803.3187898832
 20
-493.4109255373
 10
808.7584904947
 20
-486.7548711865
 10
814.3156484243
 20
-480.2851482366
 10
819.9813643851
 20
-474.0121173651
 10
825.7465652443
 20
-467.9458242647
 10
831.6020185532
 20
-462.0959835563
 10
837.5383473317
 20
-456.4719632318
 10
843.5460450852
 20
-451.0827696522
 10
849.6154910279
 20
-445.9370331245
 10
855.7369654899
 20
-441.0429940813
 10
861.9006654824
 20
-436.4084898845
 10
868.0967203962
 20
-432.0409422743
 10
874.3152078085
 20
-427.9473454839
 10
880.5461693731
 20
-424.1342550391
 10
886.7796267673
 20
-420.6077772601
 10
893.0055976719
 20
-417.3735594828
 10
899.2141117562
 20
-414.436781015
 10
905.3952266454
 20
-411.8021448425
 10
911.5390438419
 20
-409.4738700971
 10
917.6357245769
 20
-407.4556853009
 10
923.6755055665
 20
-405.7508223945
 10
927.4449851542
 20
-404.8393378688
  0
ARC
  5
F5
330
1F
100
AcDbEntity
  8
0
  6
Continuous
 62
     7
370
    25
100
AcDbCircle
 10
889.0400263562
 20
-695.0921418205
 30
0.0
 40
162.7239410025981
100
AcDbArc
 50
179.2762974115
 51
196.591606061
  0
LINE
  5
F6
330
1F
100
AcDbEntity
  8
0
  6
Continuous
 62
     7
370
    25
100
AcDbLine
 10
-173.2424059533
 20
-694.9170944649
 30
0.0
 11
-173.2424059533
 21
-766.9170944649
 31
0.0
  0
LINE
  5
F7
330
1F
100
AcDbEntity
  8
0
  6
Continuous
 62
     7
370
    25
100
AcDbLine
 10
456.7575940467
 20
-766.9170944649
 30
0.0
 11
456.7575940467
 21
-694.9170944649
 31
0.0
  0
LINE
  5
F8
330
1F
100
AcDbEntity
  8
0
  6
Continuous
 62
     7
370
    25
100
AcDbLine
 10
-173.2424059533
 20
-766.9170944649
 30
0.0
 11
-138.2424059533
 21
-777.8059833538
 31
0.0
  0
LINE
  5
F9
330
1F
100
AcDbEntity
  8
0
  6
Continuous
 62
     7
370
    25
100
AcDbLine
 10
421.7575940467
 20
-777.8059833538
 30
0.0
 11
456.7575940467
 21
-766.9170944649
 31
0.0
  0
LINE
  5
FA
330
1F
100
AcDbEntity
  8
0
  6
Continuous
 62
     7
370
    25
100
AcDbLine
 10
-138.2424059533
 20
-777.8059833538
 30
0.0
 11
-138.2424059533
 21
-813.8059833538
 31
0.0
  0
LINE
  5
FB
330
1F
100
AcDbEntity
  8
0
  6
Continuous
 62
     7
370
    25
100
AcDbLine
 10
421.7575940467
 20
-813.8059833538
 30
0.0
 11
421.7575940467
 21
-777.8059833538
 31
0.0
  0
LINE
  5
FC
330
1F
100
AcDbEntity
  8
0
  6
Continuous
 62
     7
370
    25
100
AcDbLine
 10
-138.2424059533
 20
-813.8059833538
 30
0.0
 11
-108.2424059533
 21
-823.1393166871
 31
0.0
  0
LINE
  5
FD
330
1F
100
AcDbEntity
  8
0
  6
Continuous
 62
     7
370
    25
100
AcDbLine
 10
391.7575940467
 20
-823.1393166871
 30
0.0
 11
421.7575940467
 21
-813.8059833538
 31
0.0
  0
LINE
  5
FE
330
1F
100
AcDbEntity
  8
0
  6
Continuous
 62
     7
370
    25
100
AcDbLine
 10
-108.2424059533
 20
-823.1393166871
 30
0.0
 11
-108.2424059533
 21
-859.1393166871
 31
0.0
  0
LINE
  5
FF
330
1F
100
AcDbEntity
  8
0
  6
Continuous
 62
     7
370
    25
100
AcDbLine
 10
391.7575940467
 20
-859.1393166871
 30
0.0
 11
391.7575940467
 21
-823.1393166871
 31
0.0
  0
LINE
  5
100
330
1F
100
AcDbEntity
  8
0
  6
Continuous
 62
     7
370
    25
100
AcDbLine
 10
-108.2424059533
 20
-859.1393166871
 30
0.0
 11
-83.2424059533
 21
-866.9170944649
 31
0.0
  0
LINE
  5
101
330
1F
100
AcDbEntity
  8
0
  6
Continuous
 62
     7
370
    25
100
AcDbLine
 10
366.7575940467
 20
-866.9170944649
 30
0.0
 11
391.7575940467
 21
-859.1393166871
 31
0.0
  0
LINE
  5
102
330
1F
100
AcDbEntity
  8
0
  6
Continuous
 62
     7
370
    25
100
AcDbLine
 10
-83.2424059533
 20
-866.9170944649
 30
0.0
 11
-83.2424059533
 21
-902.9170944649
 31
0.0
  0
LINE
  5
103
330
1F
100
AcDbEntity
  8
0
  6
Continuous
 62
     7
370
    25
100
AcDbLine
 10
366.7575940467
 20
-902.9170944649
 30
0.0
 11
366.7575940467
 21
-866.9170944649
 31
0.0
  0
LINE
  5
104
330
1F
100
AcDbEntity
  8
0
  6
Continuous
 62
     7
370
    25
100
AcDbLine
 10
-173.2424059533
 20
-766.9170944649
 30
0.0
 11
456.7575940467
 21
-766.9170944649
 31
0.0
  0
LINE
  5
105
330
1F
100
AcDbEntity
  8
0
  6
Continuous
 62
     7
370
    25
100
AcDbLine
 10
-173.2424059533
 20
-694.9170944649
 30
0.0
 11
456.7575940467
 21
-694.9170944649
 31
0.0
  0
LINE
  5
106
330
1F
100
AcDbEntity
  8
0
  6
Continuous
 62
     7
370
    25
100
AcDbLine
 10
-138.2424059533
 20
-777.8059833538
 30
0.0
 11
421.7575940467
 21
-777.8059833538
 31
0.0
  0
LINE
  5
107
330
1F
100
AcDbEntity
  8
0
  6
Continuous
 62
     7
370
    25
100
AcDbLine
 10
-138.2424059533
 20
-813.8059833538
 30
0.0
 11
421.7575940467
 21
-813.8059833538
 31
0.0
  0
LINE
  5
108
330
1F
100
AcDbEntity
  8
0
  6
Continuous
 62
     7
370
    25
100
AcDbLine
 10
-108.2424059533
 20
-823.1393166871
 30
0.0
 11
391.7575940467
 21
-823.1393166871
 31
0.0
  0
LINE
  5
109
330
1F
100
AcDbEntity
  8
0
  6
Continuous
 62
     7
370
    25
100
AcDbLine
 10
-108.2424059533
 20
-859.1393166871
 30
0.0
 11
391.7575940467
 21
-859.1393166871
 31
0.0
  0
LINE
  5
10A
330
1F
100
AcDbEntity
  8
0
  6
Continuous
 62
     7
370
    25
100
AcDbLine
 10
-83.2424059533
 20
-866.9170944649
 30
0.0
 11
366.7575940467
 21
-866.9170944649
 31
0.0
  0
LINE
  5
10B
330
1F
100
AcDbEntity
  8
0
  6
Continuous
 62
     7
370
    25
100
AcDbLine
 10
-83.2424059533
 20
-902.9170944649
 30
0.0
 11
366.7575940467
 21
-902.9170944649
 31
0.0
  0
ENDSEC
  0
SECTION
  2
OBJECTS
  0
DICTIONARY
  5
C
330
0
100
AcDbDictionary
281
     1
  3
ACAD_GROUP
350
D
  3
ACAD_LAYOUT
350
1A
  3
ACAD_MLINESTYLE
350
17
  3
ACAD_PLOTSETTINGS
350
19
  3
ACAD_PLOTSTYLENAME
350
E
  3
ACAD_SCALELIST
350
47
  0
DICTIONARY
  5
D
102
{ACAD_REACTORS
330
C
102
}
330
C
100
AcDbDictionary
281
     1
  0
DICTIONARY
  5
1A
102
{ACAD_REACTORS
330
C
102
}
330
C
100
AcDbDictionary
281
     1
  3
Layout1
350
1E
  3
Layout2
350
26
  3
Model
350
22
  0
DICTIONARY
  5
17
102
{ACAD_REACTORS
330
C
102
}
330
C
100
AcDbDictionary
281
     1
  3
Standard
350
18
  0
DICTIONARY
  5
19
102
{ACAD_REACTORS
330
C
102
}
330
C
100
AcDbDictionary
281
     1
  0
ACDBDICTIONARYWDFLT
  5
E
102
{ACAD_REACTORS
330
C
102
}
330
C
100
AcDbDictionary
281
     1
  3
Normal
350
F
100
AcDbDictionaryWithDefault
340
F
  0
DICTIONARY
  5
47
102
{ACAD_REACTORS
330
C
102
}
330
C
100
AcDbDictionary
281
     1
  3
A0
350
48
  3
A1
350
49
  3
A2
350
4A
  3
A3
350
4B
  3
A4
350
4C
  3
A5
350
4D
  3
A6
350
4E
  3
A7
350
4F
  3
A8
350
50
  3
A9
350
51
  3
B0
350
52
  3
B1
350
53
  3
B2
350
54
  3
B3
350
55
  3
B4
350
56
  3
B5
350
57
  3
B6
350
58
  3
B7
350
59
  3
B8
350
5A
  3
B9
350
5B
  3
C0
350
5C
  3
C1
350
5D
  3
C2
350
5E
  3
C3
350
5F
  3
C4
350
60
  3
C5
350
61
  3
C6
350
62
  3
C7
350
63
  3
C8
350
64
  3
C9
350
65
  3
D0
350
66
  3
D1
350
67
  3
D2
350
68
  0
LAYOUT
  5
1E
102
{ACAD_REACTORS
330
1A
102
}
330
1A
100
AcDbPlotSettings
  1

  2
none_device
  4

  6

 40
0.0
 41
0.0
 42
0.0
 43
0.0
 44
0.0
 45
0.0
 46
0.0
 47
0.0
 48
0.0
 49
0.0
140
0.0
141
0.0
142
1.0
143
1.0
 70
   688
 72
     1
 73
     0
 74
     5
  7

 75
    16
147
1.0
148
0.0
149
0.0
100
AcDbLayout
  1
Layout1
 70
     1
 71
     1
 10
0.0
 20
0.0
 11
420.0
 21
297.0
 12
0.0
 22
0.0
 32
0.0
 14
1.0000000000E+20
 24
1.0000000000E+20
 34
1.0000000000E+20
 15
-1.0000000000E+20
 25
-1.0000000000E+20
 35
-1.0000000000E+20
146
0.0
 13
0.0
 23
0.0
 33
0.0
 16
1.0
 26
0.0
 36
0.0
 17
0.0
 27
1.0
 37
0.0
 76
     0
330
1B
  0
LAYOUT
  5
26
102
{ACAD_REACTORS
330
1A
102
}
330
1A
100
AcDbPlotSettings
  1

  2
none_device
  4

  6

 40
0.0
 41
0.0
 42
0.0
 43
0.0
 44
0.0
 45
0.0
 46
0.0
 47
0.0
 48
0.0
 49
0.0
140
0.0
141
0.0
142
1.0
143
1.0
 70
   688
 72
     1
 73
     0
 74
     5
  7

 75
    16
147
1.0
148
0.0
149
0.0
100
AcDbLayout
  1
Layout2
 70
     1
 71
     2
 10
0.0
 20
0.0
 11
0.0
 21
0.0
 12
0.0
 22
0.0
 32
0.0
 14
0.0
 24
0.0
 34
0.0
 15
0.0
 25
0.0
 35
0.0
146
0.0
 13
0.0
 23
0.0
 33
0.0
 16
1.0
 26
0.0
 36
0.0
 17
0.0
 27
1.0
 37
0.0
 76
     0
330
23
  0
LAYOUT
  5
22
102
{ACAD_REACTORS
330
1A
102
}
330
1A
100
AcDbPlotSettings
  1

  2
none_device
  4
Letter_(8.50_x_11.00_Inches)
  6

 40
6.35
 41
6.35
 42
6.35000508
 43
6.35000508
 44
215.9
 45
279.4
 46
0.0
 47
0.0
 48
0.0
 49
0.0
140
0.0
141
0.0
142
1.0
143
1.0
 70
  1712
 72
     1
 73
     0
 74
     0
  7

 75
     0
147
1.0
148
0.0
149
0.0
100
AcDbLayout
  1
Model
 70
     1
 71
     0
 10
0.0
 20
0.0
 11
279.4
 21
215.9
 12
0.0
 22
0.0
 32
0.0
 14
0.0
 24
0.0
 34
0.0
 15
279.4
 25
215.9
 35
0.0
146
0.0
 13
0.0
 23
0.0
 33
0.0
 16
1.0
 26
0.0
 36
0.0
 17
0.0
 27
1.0
 37
0.0
 76
     0
330
1F
331
29
  0
MLINESTYLE
  5
18
102
{ACAD_REACTORS
330
17
102
}
330
17
100
AcDbMlineStyle
  2
Standard
 70
     0
  3

 62
   256
 51
90.0
 52
90.0
 71
     2
 49
0.5
 62
   256
  6
BYLAYER
 49
-0.5
 62
   256
  6
BYLAYER
  0
ACDBPLACEHOLDER
  5
F
102
{ACAD_REACTORS
330
E
102
}
330
E
  0
SCALE
  5
48
102
{ACAD_REACTORS
330
47
102
}
330
47
100
AcDbScale
 70
     0
300
1:1
140
1.0
141
1.0
290
     1
  0
SCALE
  5
49
102
{ACAD_REACTORS
330
47
102
}
330
47
100
AcDbScale
 70
     0
300
1:2
140
1.0
141
2.0
290
     0
  0
SCALE
  5
4A
102
{ACAD_REACTORS
330
47
102
}
330
47
100
AcDbScale
 70
     0
300
1:4
140
1.0
141
4.0
290
     0
  0
SCALE
  5
4B
102
{ACAD_REACTORS
330
47
102
}
330
47
100
AcDbScale
 70
     0
300
1:5
140
1.0
141
5.0
290
     0
  0
SCALE
  5
4C
102
{ACAD_REACTORS
330
47
102
}
330
47
100
AcDbScale
 70
     0
300
1:8
140
1.0
141
8.0
290
     0
  0
SCALE
  5
4D
102
{ACAD_REACTORS
330
47
102
}
330
47
100
AcDbScale
 70
     0
300
1:10
140
1.0
141
10.0
290
     0
  0
SCALE
  5
4E
102
{ACAD_REACTORS
330
47
102
}
330
47
100
AcDbScale
 70
     0
300
1:16
140
1.0
141
16.0
290
     0
  0
SCALE
  5
4F
102
{ACAD_REACTORS
330
47
102
}
330
47
100
AcDbScale
 70
     0
300
1:20
140
1.0
141
20.0
290
     0
  0
SCALE
  5
50
102
{ACAD_REACTORS
330
47
102
}
330
47
100
AcDbScale
 70
     0
300
1:30
140
1.0
141
30.0
290
     0
  0
SCALE
  5
51
102
{ACAD_REACTORS
330
47
102
}
330
47
100
AcDbScale
 70
     0
300
1:40
140
1.0
141
40.0
290
     0
  0
SCALE
  5
52
102
{ACAD_REACTORS
330
47
102
}
330
47
100
AcDbScale
 70
     0
300
1:50
140
1.0
141
50.0
290
     0
  0
SCALE
  5
53
102
{ACAD_REACTORS
330
47
102
}
330
47
100
AcDbScale
 70
     0
300
1:100
140
1.0
141
100.0
290
     0
  0
SCALE
  5
54
102
{ACAD_REACTORS
330
47
102
}
330
47
100
AcDbScale
 70
     0
300
2:1
140
2.0
141
1.0
290
     0
  0
SCALE
  5
55
102
{ACAD_REACTORS
330
47
102
}
330
47
100
AcDbScale
 70
     0
300
4:1
140
4.0
141
1.0
290
     0
  0
SCALE
  5
56
102
{ACAD_REACTORS
330
47
102
}
330
47
100
AcDbScale
 70
     0
300
8:1
140
8.0
141
1.0
290
     0
  0
SCALE
  5
57
102
{ACAD_REACTORS
330
47
102
}
330
47
100
AcDbScale
 70
     0
300
10:1
140
10.0
141
1.0
290
     0
  0
SCALE
  5
58
102
{ACAD_REACTORS
330
47
102
}
330
47
100
AcDbScale
 70
     0
300
100:1
140
100.0
141
1.0
290
     0
  0
SCALE
  5
59
102
{ACAD_REACTORS
330
47
102
}
330
47
100
AcDbScale
 70
     0
300
1/128" = 1'-0"
140
0.0078125
141
12.0
290
     0
  0
SCALE
  5
5A
102
{ACAD_REACTORS
330
47
102
}
330
47
100
AcDbScale
 70
     0
300
1/64" = 1'-0"
140
0.015625
141
12.0
290
     0
  0
SCALE
  5
5B
102
{ACAD_REACTORS
330
47
102
}
330
47
100
AcDbScale
 70
     0
300
1/32" = 1'-0"
140
0.03125
141
12.0
290
     0
  0
SCALE
  5
5C
102
{ACAD_REACTORS
330
47
102
}
330
47
100
AcDbScale
 70
     0
300
1/16" = 1'-0"
140
0.0625
141
12.0
290
     0
  0
SCALE
  5
5D
102
{ACAD_REACTORS
330
47
102
}
330
47
100
AcDbScale
 70
     0
300
3/32" = 1'-0"
140
0.09375
141
12.0
290
     0
  0
SCALE
  5
5E
102
{ACAD_REACTORS
330
47
102
}
330
47
100
AcDbScale
 70
     0
300
1/8" = 1'-0"
140
0.125
141
12.0
290
     0
  0
SCALE
  5
5F
102
{ACAD_REACTORS
330
47
102
}
330
47
100
AcDbScale
 70
     0
300
3/16" = 1'-0"
140
0.1875
141
12.0
290
     0
  0
SCALE
  5
60
102
{ACAD_REACTORS
330
47
102
}
330
47
100
AcDbScale
 70
     0
300
1/4" = 1'-0"
140
0.25
141
12.0
290
     0
  0
SCALE
  5
61
102
{ACAD_REACTORS
330
47
102
}
330
47
100
AcDbScale
 70
     0
300
3/8" = 1'-0"
140
0.375
141
12.0
290
     0
  0
SCALE
  5
62
102
{ACAD_REACTORS
330
47
102
}
330
47
100
AcDbScale
 70
     0
300
1/2" = 1'-0"
140
0.5
141
12.0
290
     0
  0
SCALE
  5
63
102
{ACAD_REACTORS
330
47
102
}
330
47
100
AcDbScale
 70
     0
300
3/4" = 1'-0"
140
0.75
141
12.0
290
     0
  0
SCALE
  5
64
102
{ACAD_REACTORS
330
47
102
}
330
47
100
AcDbScale
 70
     0
300
1" = 1'-0"
140
1.0
141
12.0
290
     0
  0
SCALE
  5
65
102
{ACAD_REACTORS
330
47
102
}
330
47
100
AcDbScale
 70
     0
300
1-1/2" = 1'-0"
140
1.5
141
12.0
290
     0
  0
SCALE
  5
66
102
{ACAD_REACTORS
330
47
102
}
330
47
100
AcDbScale
 70
     0
300
3" = 1'-0"
140
3.0
141
12.0
290
     0
  0
SCALE
  5
67
102
{ACAD_REACTORS
330
47
102
}
330
47
100
AcDbScale
 70
     0
300
6" = 1'-0"
140
6.0
141
12.0
290
     0
  0
SCALE
  5
68
102
{ACAD_REACTORS
330
47
102
}
330
47
100
AcDbScale
 70
     0
300
1'-0" = 1'-0"
140
12.0
141
12.0
290
     0
  0
ENDSEC
  0
EOF
